Oops, an error
Loading. Please wait.

Decoy Live tab

version 5
version 5

Whole song

Interactive

146 views 1 this week
no commentswrite comment
1 2 3 4 5
3 more votes to show rating
add to favorites
×
Save as Personal and add changes to this tab that will be seen only by you. Learn more ›
×
You can save this tab as Personal to edit and correct it or add notes. All changes will be seen only by you. Learn more »
launch autoscroll
font size
0
reset
how to read this tab
guitar tuner
edit
Autoscroll
slow
fast
+/-
esc
set tempo
stop
-------------------------------------------------------------------------------
                                     Decoy - Paramore
-------------------------------------------------------------------------------
Tabbed by: paramore8793
E-mail: sam_parawhore@hotmail.com

Tuning: Half-Step Down


PARAMORE - DECOY THE FINAL RIOT LEAD GUITAR JOSH FARRO, ENJOY! :D
*Listen to left speaker for Josh´s part*

 *INTRO
e|---------------------------------------------------------------------------|
B|---------------------------------------------------------------------------|
G|-------------------11--11--------------------11-11-------------------------| x6
D|-----6----9-9-------x--x---------4-4---6-6----x--x-------------------------|
A|-----6----9-9-------9--9---------4-4---6-6----9--9-------------------------|
D|-----6----9-9--------------------2-2---4-4---------------------------------|


 *VERSE    -You can ply this way-  
e|---------------------------------------------------------------------------|
B|---------------------------------------------------------------------------|
G|-----7/10---------------------2-----3----0~--------------------------------| x5
D|-----5/8----------------------2-----3----0---------------------------------|
A|-----5/8---------------------(0)---(1)--(x)--------------------------------|
D|----------------------------------------(3)--------------------------------|

 *VERSE        -Or this way-
e|---------------------------------------------------------------------------|
B|---------------------------------------------------------------------------|
G|-----7/10---------------------2----3---0~----------------------------------| x5
D|---------------------------------------------------------------------------|
A|---------------------------------------------------------------------------|
D|---------------------------------------------------------------------------|


 *CHORUS  *I´m not sure if he strums the G string. You can play it...or not* :P
e|---------------------------------------------------------------------------|
B|---------------------------------------------------------------------------|
G|-----(5)----------------(1)--------------(3)-------------------------------|
D|------6------------------2----------------4--------------------------------|
A|------6--(x16)-----------2--(x8)----------4(x8)----------------------------|
D|------4------------------0----------------2--------------------------------|


 *Little intro part..
e|---------------------------------------------------------------------------|
B|---------------------------------------------------------------------------|
G|-------------------11--11---------------------11-11------------------------|  
D|-----6----9-9-------x--x---------4-4---6-6----x--x-------------------------| twice
A|-----6----9-9-------9--9---------4-4---6-6----9--9-------------------------|
D|-----6----9-9--------------------2-2---4-4---------------------------------|


 *VERSE    -You can ply this way-  
e|---------------------------------------------------------------------------|
B|---------------------------------------------------------------------------|
G|-----7/10---------------------2-----3----0~--------------------------------| x5
D|-----5/8----------------------2-----3----0---------------------------------|
A|-----5/8---------------------(0)---(1)--(x)--------------------------------|
D|----------------------------------------(3)--------------------------------|

 *VERSE        -Or this way-
e|---------------------------------------------------------------------------|
B|---------------------------------------------------------------------------|
G|-----7/10---------------------2----3---0~----------------------------------| x5
D|---------------------------------------------------------------------------|
A|---------------------------------------------------------------------------|
D|---------------------------------------------------------------------------|


 *CHORUS  *I´m not sure if he strums the G string. You can play it...or not* :P
e|---------------------------------------------------------------------------|
B|---------------------------------------------------------------------------|
G|-----(5)----------------(1)--------------(3)-------------------------------|
D|------6------------------2----------------4--------------------------------|
A|------6--(x16)-----------2--(x8)----------4--(x8)--------------------------|
D|------4------------------0----------------2--------------------------------|



 *BRIDGE
e|--10-----------10----------------10----------------------------------------|
B|---------------------------------------------------------------------------|
G|-----10------------10----------------10------------------------------------|    x2
D|----------12------------12-------------------------------------------------|
A|---------------------------------------------------------------------------|
D|---------------------------------------------------------------------------|

e|--------6--------6-----6--------6--5---------------------------------------|
B|------6-------6-----------------------6------------------------------------|
G|---7-------7--------7--------------------5---------------------------------|
D|---------------------------------------------------------------------------|
A|---------------------------------------------------------------------------|
D|---------------------------------------------------------------------------|

e|--10-----------10--------------10------------------------------------------|
B|---------------------------------------------------------------------------|
G|-----10------------10-------------10---------------------------------------|    x2
D|-----------12------------12------------------------------------------------|
A|---------------------------------------------------------------------------|
D|---------------------------------------------------------------------------|

e|---------6-------6-----6----------5~---------------------------------------|
B|------6-------6-------------------6~---------------------------------------|
G|---7-------7-------7--------------5~------------------------10~------------|
D|------------------------------------------------------------------8~-------|
A|---------------------------------------------------------------------------|
D|---------------------------------------------------------------------------|


 *Then Little intro part..
e|---------------------------------------------------------------------------|
B|---------------------------------------------------------------------------|
G|-------------------11--11---------------------11-11------------------------|  
D|-----6----9-9-------x--x---------4-4---6-6-----x--x------------------------| twice
A|-----6----9-9-------9--9---------4-4---6-6-----9--9------------------------|
D|-----6----9-9--------------------2-2---4-4---------------------------------|


 *Next...
e|---------------------------------------------------------------------------|
B|---------------------------------------------------------------------------|
G|-------------------------------10------------------------------------------|
D|--------------------------------x--(lots of times)-------------------------|
A|--------------------------------8------------------------------------------|
D|---------------------------------------------------------------------------|


 *(Listen carefully for this part) Josh end up with..
e|---------------------------------------------------------------------------|
B|---------------------------------------------------------------------------|
G---------------------8~------------7~---------------3~----------------------|
D|--------------------x-------------x----------------x-----------------------|
A|--------------------6~------------5~---------------1~----------------------|
D|---------------------------------------------------------------------------|


************************************

| /   slide up
| \   slide down
| h   hammer-on
| p   pull-off
| ~   vibrato
| +   harmonic
| x   Mute note
| b   Bend
| pb  Pre-bend
| br  Bend release
| pbr Pre-bend release
| brb Bend release bend

************************************

            
            
Suggest correction
Creating personal tab
Creating personal tab
You can edit any tab online and save it as your Personal.

You can edit, replace or remove any tab part or add personal notes – all changes will be seen only by you.

Personal tabs can be accessed anytime from any device, even offline.
Learn more »
Give kudos to tab author, rate the tab!
1 2 3 4 5
comments
print report bad tab
guest
You may want to rate the tab now too:
select rating
Wanna post a correction for this tab? Suggest correction