Oops, an error
Loading. Please wait.
57,764 views 36 this week
20 commentsread comments
1 2 3 4 5
x 21
add to favorites
×
Save as Personal and add changes to this tab that will be seen only by you. Learn more ›
×
You can save this tab as Personal to edit and correct it or add notes. All changes will be seen only by you. Learn more »
launch autoscroll
font size
0
reset
how to read this tab
guitar tuner
edit
Autoscroll
slow
fast
+/-
esc
set tempo
stop
Author
------------------------------------------------------------------------------
                             Emergency - Paramore
-------------------------------------------------------------------------------

Tabbed by: 


             ****** read this before you bitch at me *******
_____________________________________________________________________

Updated:  August 30, 2007 - fixed minor parts
         
------> *Note: I wrote this tab for ONE guitar not two. <------

_____________________________________________________________________






Tuning: DROP D   

    
       INTRO
e|-----------9-----9-----9-----------------7----7----7-----------------------|
B|----7--------7-----7-----7---7------7------7----7----7---7-----------------|
G|--9---9--------9-----9-----9------9---9------9----9----9-------------------|
D|---------------------------------------------------------------------------|
A|---------------------------------------------------------------------------|
D|---------------------------------------------------------------------------|

e|---------------------------------------------------------------------------|
B|---------------------------------------------------------------------------|
G|---------------------------------------------------------------------------|
D|-9s-11-11-11-11-----11----11-----11-----11------11-s--9-9-9-9--------------|
A|-7s-9--9--9--9------9-----9------9------9-------9--s--7-7-7-7--------------|
D|-0s-0--0--0--0------0-----0------0------0-------0--s--0-0-0-0--------------|


e|---------------------------------------------------------------------------|
B|---------------------------------------------------------------------------|
G|---------------------------------------------------------------------------|
D|-9s-11-11-11-11-----11----11-----11-----11------11-s--9-9-9-9----0~--------|
A|-7s-9--9--9--9------9-----9------9------9-------9--s--7-7-7-7----0~--------|
D|-0s-0--0--0--0------0-----0------0------0-------0--s--0-0-0-0----0~--------|

e|-----------9-----9-----9-----------------7----7----7-----------------------|
B|----7--------7-----7-----7---7------7------7----7----7---7-----------------|
G|--9---9--------9-----9-----9------9---9------9----9----9-------------------|
D|---------------------------------------------------------------------------|
A|---------------------------------------------------------------------------|
D|---------------------------------------------------------------------------|


e|---------------------------------------------------------------------------|
B|---------------------------------------------------------------------------|
G|---------------------------------------------------------------------------|
D|-9s-11-11-11-11-----11----11-----11-----11------11-s--9-9-9-9--------------|
A|-7s-9--9--9--9------9-----9------9------9-------9--s--7-7-7-7--------------|
D|-0s-0--0--0--0------0-----0------0------0-------0--s--0-0-0-0--------------|



e|---------------------------------------------------------------------------|
B|---------------------------------------------------------------------------|
G|---------------------------------------------------------------------------|
D|-9s-11-11-11-11-----11----11-----11-----11------11-s--9-9-9-9----0~--------|
A|-7s-9--9--9--9------9-----9------9------9-------9--s--7-7-7-7----0~--------|
D|-0s-0--0--0--0------0-----0------0------0-------0--s--0-0-0-0----0~--------|


e|-----------9-----9-----9-----------------7----7----7-----------------------|
B|----7--------7-----7-----7---7------7------7----7----7---7-----------------|
G|--9---9--------9-----9-----9------9---9------9----9----9-------------------|
D|---------------------------------------------------------------------------|
A|---------------------------------------------------------------------------|
D|---------------------------------------------------------------------------|

e|---------------------------------------------------------------------------|
B|---------------------------------------------------------------------------|
G|---------------------------------------------------------------------------|
D|-9s-11-11-11-11-----11----11-----11-----11------11-s--9-9-9-9--------------|
A|-7s-9--9--9--9------9-----9------9------9-------9--s--7-7-7-7--------------|
D|-0s-0--0--0--0------0-----0------0------0-------0--s--0-0-0-0--------------|


e|---------------------------------------------------------------------------|
B|---------------------------------------------------------------------------|
G|---------------------------------------------------------------------------|
D|-9s-11-11-11-11-----11----11-----11-----11------11-s--9-9-9-9----0~--------|
A|-7s-9--9--9--9------9-----9------9------9-------9--s--7-7-7-7----0~--------|
D|-0s-0--0--0--0------0-----0------0------0-------0--s--0-0-0-0----0~--------|


e|-----------9-----9-----9-----------------7----7----7-----------------------|
B|----7--------7-----7-----7---7------7------7----7----7---7-----------------|
G|--9---9--------9-----9-----9------9---9------9----9----9-------------------|
D|---------------------------------------------------------------------------|
A|---------------------------------------------------------------------------|
D|---------------------------------------------------------------------------|


e|---------------------------------------------------------------------------|
B|---------------------------------------------------------------------------|
G|---------------------------------------------------------------------------|
D|-9s-11-11-11-11-----11----11-----11-----11------11-s--9-9-9-9--------------|
A|-7s-9--9--9--9------9-----9------9------9-------9--s--7-7-7-7--------------|
D|-0s-0--0--0--0------0-----0------0------0-------0--s--0-0-0-0--------------|



e|---------------------------------------------------------------------------|
B|---------------------------------------------------------------------------|
G|---------------------------------------------------------------------------|
D|-9s-11-11-11-11-----11----11-----11-----11------11-s--9-9-9-9----0~--------|
A|-7s-9--9--9--9------9-----9------9------9-------9--s--7-7-7-7----0~--------|
D|-0s-0--0--0--0------0-----0------0------0-------0--s--0-0-0-0----0~--------|



    " its really not your fault....when no cares to talk about it"

e|--------------------------------------------------------------------------|
B|----5-------alot----------------------------------------------------------|
G|------4-------------------------------------------------------------------|
D|--------2-----------------------------------------------------------------|
A|--------------------------------------------------------------------------|
D|--------------------------------------------------------------------------|

e|---------------------------------------------------------------------------|
B|---------------------------------------------------------------------------|
G|--4-4-4-4-----6-6-6-6------------------------------------------------------|
D|-----------s---------------------------------------------------------------|
A|--2-2-2-2--s--4-4-4-4------------------------------------------------------|
D|--0-0-0-0--s--0-0-0-0------------------------------------------------------|

  Chorus

e|---------------------------------------------------------------------------|
B|---------------------------------------------------------------------------|
G|---------------------------------------------------------------------------|
D|-9--9---9-9-9---0--0-0--0-0-0-0---4--4---4-4-4-4---7--7---7-7-7-7----------|
A|-9--9---9-9-9---0--0-0--0-0-0-0---4--4---4-4-4-4---7--7---7-7-7-7-pause----|
D|-9--9---9-9-9---0--0-0--0-0-0-0---4--4---4-4-4-4---7--7---7-7-7-7----------|


e|---------------------------------------------------------------------------|
B|---------------------------------------------------------------------------|
G|---------------------------------------------------------------------------|
D|-9--9---9-9-9---0--0-0--0-0-0-0---4--4---4-4-4-4---2--2---2-2-2-2----------|
A|-9--9---9-9-9---0--0-0--0-0-0-0---4--4---4-4-4-4---2--2---2-2-2-2----------|
D|-9--9---9-9-9---0--0-0--0-0-0-0---4--4---4-4-4-4---2--2---2-2-2-2----------|

e|---------------------------------------------------------------------------|
B|---------------------------------------------------------------------------|
G|---------------------------------------------------------------------------|
D|-9--9---9-9-9---0--0-0--0-0-0-0---4--4---4-4-4-4---7--7---7-7-7-7----------|
A|-9--9---9-9-9---0--0-0--0-0-0-0---4--4---4-4-4-4---7--7---7-7-7-7-pause----|
D|-9--9---9-9-9---0--0-0--0-0-0-0---4--4---4-4-4-4---7--7---7-7-7-7----------|

e|---------------------------------------------------------------------------|
B|---------------------------------------------------------------------------|
G|---------------------------------------------------------------------------|
D|-9--9---9-9-9---0--0-0--0-0-0-0---4--4---4-4-4-4---2--2---2-2-2-2----------|
A|-9--9---9-9-9---0--0-0--0-0-0-0---4--4---4-4-4-4---2--2---2-2-2-2----------|
D|-9--9---9-9-9---0--0-0--0-0-0-0---4--4---4-4-4-4---2--2---2-2-2-2----------|


e|-----------9-----9-----9-----------------7----7----7-----------------------|
B|----7--------7-----7-----7---7------7------7----7----7---7-----------------|
G|--9---9--------9-----9-----9------9---9------9----9----9-------------------|
D|---------------------------------------------------------------------------|
A|---------------------------------------------------------------------------|
D|---------------------------------------------------------------------------|

e|---------------------------------------------------------------------------|
B|---------------------------------------------------------------------------|
G|---------------------------------------------------------------------------|
D|-9s-11-11-11-11-----11----11-----11-----11------11-s--9-9-9-9--------------|
A|-7s-9--9--9--9------9-----9------9------9-------9--s--7-7-7-7--------------|
D|-0s-0--0--0--0------0-----0------0------0-------0--s--0-0-0-0--------------|

e|---------------------------------------------------------------------------|
B|---------------------------------------------------------------------------|
G|---------------------------------------------------------------------------|
D|-9s-11-11-11-11-----11----11-----11-----11------11-s--9-9-9-9----0~--------|
A|-7s-9--9--9--9------9-----9------9------9-------9--s--7-7-7-7----0~--------|
D|-0s-0--0--0--0------0-----0------0------0-------0--s--0-0-0-0----0~--------|


e|-----------9-----9-----9-----------------7----7----7-----------------------|
B|----7--------7-----7-----7---7------7------7----7----7---7-----------------|
G|--9---9--------9-----9-----9------9---9------9----9----9-------------------|
D|---------------------------------------------------------------------------|
A|---------------------------------------------------------------------------|
D|---------------------------------------------------------------------------|

e|---------------------------------------------------------------------------|
B|---------------------------------------------------------------------------|
G|---------------------------------------------------------------------------|
D|-9s-11-11-11-11-----11----11-----11-----11------11-s--9-9-9-9--------------|
A|-7s-9--9--9--9------9-----9------9------9-------9--s--7-7-7-7--------------|
D|-0s-0--0--0--0------0-----0------0------0-------0--s--0-0-0-0--------------|

e|---------------------------------------------------------------------------|
B|---------------------------------------------------------------------------|
G|---------------------------------------------------------------------------|
D|-9s-11-11-11-11-----11----11-----11-----11------11-s--9-9-9-9----0~--------|
A|-7s-9--9--9--9------9-----9------9------9-------9--s--7-7-7-7----0~--------|
D|-0s-0--0--0--0------0-----0------0------0-------0--s--0-0-0-0----0~--------|


e|-----------9-----9-----9-----------------7----7----7-----------------------|
B|----7--------7-----7-----7---7------7------7----7----7---7-----------------|
G|--9---9--------9-----9-----9------9---9------9----9----9-------------------|
D|---------------------------------------------------------------------------|
A|---------------------------------------------------------------------------|
D|---------------------------------------------------------------------------|

e|---------------------------------------------------------------------------|
B|---------------------------------------------------------------------------|
G|---------------------------------------------------------------------------|
D|-9s-11-11-11-11-----11----11-----11-----11------11-s--9-9-9-9--------------|
A|-7s-9--9--9--9------9-----9------9------9-------9--s--7-7-7-7--------------|
D|-0s-0--0--0--0------0-----0------0------0-------0--s--0-0-0-0--------------|

e|---------------------------------------------------------------------------|
B|---------------------------------------------------------------------------|
G|---------------------------------------------------------------------------|
D|-9s-11-11-11-11-----11----11-----11-----11------11-s--9-9-9-9----0~--------|
A|-7s-9--9--9--9------9-----9------9------9-------9--s--7-7-7-7----0~--------|
D|-0s-0--0--0--0------0-----0------0------0-------0--s--0-0-0-0----0~--------|

    " its really not your fault....when no cares to talk about it"

e|--------------------------------------------------------------------------|
B|----5-------alot----------------------------------------------------------|
G|------4-------------------------------------------------------------------|
D|--------2-----------------------------------------------------------------|
A|--------------------------------------------------------------------------|
D|--------------------------------------------------------------------------|

e|---------------------------------------------------------------------------|
B|---------------------------------------------------------------------------|
G|--4-4-4-4-----6-6-6-6------------------------------------------------------|
D|-----------s---------------------------------------------------------------|
A|--2-2-2-2--s--4-4-4-4------------------------------------------------------|
D|--0-0-0-0--s--0-0-0-0------------------------------------------------------|

e|---------------------------------------------------------------------------|
B|---------------------------------------------------------------------------|
G|---------------------------------------------------------------------------|
D|-9--9---9-9-9---0--0-0--0-0-0-0---4--4---4-4-4-4---7--7---7-7-7-7----------|
A|-9--9---9-9-9---0--0-0--0-0-0-0---4--4---4-4-4-4---7--7---7-7-7-7-pause----|
D|-9--9---9-9-9---0--0-0--0-0-0-0---4--4---4-4-4-4---7--7---7-7-7-7----------|

e|---------------------------------------------------------------------------|
B|---------------------------------------------------------------------------|
G|---------------------------------------------------------------------------|
D|-9--9---9-9-9---0--0-0--0-0-0-0---4--4---4-4-4-4---2--2---2-2-2-2----------|
A|-9--9---9-9-9---0--0-0--0-0-0-0---4--4---4-4-4-4---2--2---2-2-2-2----------|
D|-9--9---9-9-9---0--0-0--0-0-0-0---4--4---4-4-4-4---2--2---2-2-2-2----------|

e|---------------------------------------------------------------------------|
B|---------------------------------------------------------------------------|
G|---------------------------------------------------------------------------|
D|-9--9---9-9-9---0--0-0--0-0-0-0---4--4---4-4-4-4---7--7---7-7-7-7----------|
A|-9--9---9-9-9---0--0-0--0-0-0-0---4--4---4-4-4-4---7--7---7-7-7-7-pause----|
D|-9--9---9-9-9---0--0-0--0-0-0-0---4--4---4-4-4-4---7--7---7-7-7-7----------|

e|---------------------------------------------------------------------------|
B|---------------------------------------------------------------------------|
G|---------------------------------------------------------------------------|
D|-9--9---9-9-9---0--0-0--0-0-0-0---4--4---4-4-4-4---2--2---2-2-2-2----------|
A|-9--9---9-9-9---0--0-0--0-0-0-0---4--4---4-4-4-4---2--2---2-2-2-2----------|
D|-9--9---9-9-9---0--0-0--0-0-0-0---4--4---4-4-4-4---2--2---2-2-2-2----------|

e|-----------9-----9-----9-----------------7----7----7-----------------------|
B|----7--------7-----7-----7---7------7------7----7----7---7-----------------|
G|--9---9--------9-----9-----9------9---9------9----9----9-------------------|
D|---------------------------------------------------------------------------|
A|---------------------------------------------------------------------------|
D|---------------------------------------------------------------------------|

e|--------------------------------------------------------------------------|
B|----5-------alot-very soft------------------------------------------------|
G|------4-------------------------------------------------------------------|
D|--------2-----------------------------------------------------------------|
A|--------------------------------------------------------------------------|
D|--------------------------------------------------------------------------|

   SOLO

e|------------------------------------------------9--------------9-----------|
B|-----------9-10-9-------------9-10-9-----9---12-----12------12-----12-10---|
G|---------9--------9---------9--------9------------------9------------------|
D|----7s9----------------7s9-------------------------------------------------|
A|---------------------------------------------------------------------------|
D|---------------------------------------------------------------------------|

e|----------------------------9--12--------17-16----------17-16--------------|
B|----------9-10-9-----9---12--------10-----------17--14---------17----------|
G|--------9--------9------------------------------------------------14s16----|
D|----7s9--------------------------------------------------------------------|
A|---------------------------------------------------------------------------|
D|---------------------------------------------------------------------------|

e|--------------------------------------------------------------------------|
B|----5-------alot-very soft------------------------------------------------|
G|------4-------------------------------------------------------------------|
D|--------2-----------------------------------------------------------------|
A|--------------------------------------------------------------------------|
D|--------------------------------------------------------------------------|

e|-----------9-----9-----9-----------------7----7----7-----------------------|
B|----7--------7-----7-----7---7------7------7----7----7---7-----------------|
G|--9---9--------9-----9-----9------9---9------9----9----9-------------------|
D|---------------------------------------------------------------------------|
A|---------------------------------------------------------------------------|
D|---------------------------------------------------------------------------|

e|---------------------------------------------------------------------------|
B|---------------------------------------------------------------------------|
G|---------------------------------------------------------------------------|
D|-9--9---9-9-9---0--0-0--0-0-0-0---4--4---4-4-4-4---7--7---7-7-7-7----------|
A|-9--9---9-9-9---0--0-0--0-0-0-0---4--4---4-4-4-4---7--7---7-7-7-7-pause----|
D|-9--9---9-9-9---0--0-0--0-0-0-0---4--4---4-4-4-4---7--7---7-7-7-7----------|

e|---------------------------------------------------------------------------|
B|---------------------------------------------------------------------------|
G|---------------------------------------------------------------------------|
D|-9--9---9-9-9---0--0-0--0-0-0-0---4--4---4-4-4-4---2--2---2-2-2-2----------|
A|-9--9---9-9-9---0--0-0--0-0-0-0---4--4---4-4-4-4---2--2---2-2-2-2----------|
D|-9--9---9-9-9---0--0-0--0-0-0-0---4--4---4-4-4-4---2--2---2-2-2-2----------|

e|---------------------------------------------------------------------------|
B|---------------------------------------------------------------------------|
G|---------------------------------------------------------------------------|
D|-9--9---9-9-9---0--0-0--0-0-0-0---4--4---4-4-4-4---7--7---7-7-7-7----------|
A|-9--9---9-9-9---0--0-0--0-0-0-0---4--4---4-4-4-4---7--7---7-7-7-7-pause----|
D|-9--9---9-9-9---0--0-0--0-0-0-0---4--4---4-4-4-4---7--7---7-7-7-7----------|

e|---------------------------------------------------------------------------|
B|---------------------------------------------------------------------------|
G|---------------------------------------------------------------------------|
D|-9--9---9-9-9---0--0-0--0-0-0-0---4--4---4-4-4-4---7--7---2-2-2-2----------|
A|-9--9---9-9-9---0--0-0--0-0-0-0---4--4---4-4-4-4---7--7---2-2-2-2----------|
D|-9--9---9-9-9---0--0-0--0-0-0-0---4--4---4-4-4-4---7--7---2-2-2-2----------|

e|-----------9-----9-----9-----------------7----7----7-----------------------|
B|----7--------7-----7-----7---7------7------7----7----7---7-----------------|
G|--9---9--------9-----9-----9------9---9------9----9----9-------------------|
D|---------------------------------------------------------------------------|
A|---------------------------------------------------------------------------|
D|---------------------------------------------------------------------------|



| /  slide up
| \  slide down
| h  hammer-on
| p  pull-off
| ~  vibrato
| +  harmonic
| x  Mute note
=================================================================

            
            
Suggest correction
Creating personal tab
Creating personal tab
You can edit any tab online and save it as your Personal.

You can edit, replace or remove any tab part or add personal notes – all changes will be seen only by you.

Personal tabs can be accessed anytime from any device, even offline.
Learn more »
comments
print report bad tab
20 comments total. Showing first comments.
+1 reply
tele1960 10 Oct 28, 2006 12:26 PM

i think this is the best tab for this song

0 reply
punkjunkie92 10 Feb 19, 2007 01:35 PM

how do you play the part:

e|------------------------------------------------------------------|
B|------------------------------------------------------------------|
G|--4-4-4-4-----6-6-6-6---------------------------------------------|
D|-----------s------------------------------------------------------|
A|--2-2-2-2--s--4-4-4-4---------------------------------------------|
D|--0-0-0-0--s--0-0-0-0---------------------------------------------|

with out the higher D string? and whats the whole drop d tuning thing about? cuz i think its tuning E down to D but it seems much different and if it isnt, should the string buzz on open notes on low D?? and whats the rythym of:

e|-----------------------------------------------------------------|
B|-----------------------------------------------------------------|
G|-----------------------------------------------------------------|
D|-9--9---9-9-9---0--0-0--0-0-0-0---4--4---4-4-4-4---7--7---7-7-7-7|
A|-9--9---9-9-9---0--0-0--0-0-0-0---4--4---4-4-4-4---7--7---7-7-7-7|
D|-9--9---9-9-9---0--0-0--0-0-0-0---4--4---4-4-4-4---7--7---7-7-7-7|

?? thanks!

-1 reply
TheNinja 30 Jul 15, 2007 04:33 PM

solo is way off and so is the part after the intro.

but the rest is decent

guest
You may want to rate the tab now too:
select rating
Wanna post a correction for this tab? Suggest correction