Oops, an error
Loading. Please wait.
4,815 views 3 this week
no commentswrite comment
1 2 3 4 5
x 3
add to favorites
×
Save as Personal and add changes to this tab that will be seen only by you. Learn more ›
×
You can save this tab as Personal to edit and correct it or add notes. All changes will be seen only by you. Learn more »
launch autoscroll
font size
0
reset
how to read this tab
guitar tuner
edit
Autoscroll
slow
fast
+/-
esc
set tempo
stop
Im positive about this entire tab except for the Bridge.
Novice to Intermediate song. 
Made for 2 Guitars.
Made for Drop D Tuning.

-------------------------------------------------
              Paramore - Emergency
-------------------------------------------------

Signs 
\ | Slide Up
* | Let Ring




Intro (Clean or Distortion)
e||---9--9--9-----------------||
B||-7--7--7--7-7---9--9--9----||
G||9-9--9--9--9--7--7--7--7-7-||
d||-------------9-9--9--9--9--||
A||---------------------------||
D||---------------------------||

Verse 1 (Distortion)
e||-------------------------------||
B||-------------------------------||
G||-------------------------------||
d||0123-444444-22-23-444444-22-0*-||
A||0123-444444-22-23-444444-22-0*-||
D||0123-444444-22-23-444444-22-0*-||
             (Play Intro x1)
           [chords and intro x3]

Post-Verse
e||-----------------------------||
B||-----------------------------||
G||-----------------------------||
d||0123-444444-22-23-444444-22x-||
A||0123-444444-22-23-444444-22x-||
D||0123-444444-22-23-444444-22x-||

Riff 1
e||--9-|| play fast and repetitively
B||7--0||
G||-9--||
d||----|| x?
A||----||
D||----||

Fill 1
e||----------||       ||-------||
B||----------||       ||-------||
G||----------||  OR   ||444-666||
d||999-111111||       ||444-666||
A||999-111111||       ||222-444||
D||999-111111||       ||xxx-xxx||
 ^^^^^this sounds better

Chorus    (2 Guitars)

Guitar 1
e||---------------------------------||
B||---------------------------------||
G||---------------------------------||
d||-4-4-444-0-0-000-1-1-111-3-3-333-||
A||-4-4-444-0-0-000-1-1-111-3-3-333-|| x4
D||-4-4-444-0-0-000-1-1-111-3-3-333-||

end on F# power chord and let ring

Guitar 2
Play Riff 1 backing the chorus repetitively

Post-Chorus 
Play Intro x1

Verse 2
Play Verse 1 x2
Then play Post-Verse
Play Fill 1

REPEAT CHORUS (both guitars)

Play Intro x1

Bridge (2 Guitars)

Guitar 1 : Riff 1, end right after ("these scars they will 
not fade away) and play

e||-------------------||
B||---------11-10-9-8-||
G||-77-9-11-----------||
d||-------------------|| x2
A||-------------------||
D||-------------------||   

opt. if u want to add A||10|| between 
these 2 riffs u can.

e||-----------------------------------------------||
B||-----------------------------------------------||
G||-------------12-13h14--------------14-13-13h12-||
d||-------14-12-----------------14-12-------------||
A||121314----------------121314-------------------||
D||-----------------------------------------------||

e||--------------------------------------||
B||--------------------------------------||
G||-------------12-13h14-----------------||
d||-------14-12----------------14-18-1716||
A||121314---------------121314-----------||
D||--------------------------------------||
          
e||--------------------------||
B||--------------------------||
G||--------18-16-------18-14-||
d||-/18-20-------18-20-------||
A||--------------------------||
D||--------------------------||

end on 
e||-----||
B||-----||
G||-----||
d||4*---||
A||4*---||
D||4*---||

Guitar 2
e||-------------------------------------||
B||-------------------------------------||
G||-------------------------------------||
d||-77777777-99999999-00000000-44444444-||
A||-77777777-99999999-00000000-44444444-||
D||-77777777-99999999-00000000-44444444-||

end on (same timing as Guitar 1)
e||------||
B||------||
G||------||
d||-4*---||
A||-4*---||
D||-4*---||

Post-Bridge
Play Riff 1 x ?
then Intro x 1

Play Chorus x4 (NO GUITAR FILL LEADING IN)

Outro (Both Guitars)
e||---------------------------||
B||---------------------------||
G||---------------------------||
d||00-00-00-00-00-00-00-00-4*-||
A||00-00-00-00-00-00-00-00-4*-||
D||00-00-00-00-00-00-00-00-4*-||

Please Rate and also comment if you feel the need,
also this is my first GUITAR tab ive done so plz give
me some slack....

            
            
Suggest correction
Creating personal tab
Creating personal tab
You can edit any tab online and save it as your Personal.

You can edit, replace or remove any tab part or add personal notes – all changes will be seen only by you.

Personal tabs can be accessed anytime from any device, even offline.
Learn more »
Give kudos to tab author, rate the tab!
1 2 3 4 5
comments
print report bad tab
guest
You may want to rate the tab now too:
select rating
Wanna post a correction for this tab? Suggest correction