Oops, an error
Loading. Please wait.
129,498 views 27 this week
20 commentsread comments
1 2 3 4 5
x 42
add to favorites
×
Save as Personal and add changes to this tab that will be seen only by you. Learn more ›
×
You can save this tab as Personal to edit and correct it or add notes. All changes will be seen only by you. Learn more »
launch autoscroll
font size
0
reset
how to read this tab
guitar tuner
edit
Autoscroll
slow
fast
+/-
esc
set tempo
stop
Author
This is my second tab.. =)
my first tab was The Used-BMA(Shortcut)
Well yah anyway..This song is
easy to and easy to tab out so
it shouldn't be such a problem to
play..

I combine this together into one
guitar I know theres 3 but you know...
Have fun..

[Intro](Do The Rythem)
e|-----------9---9---9-----------7---7---7-------|
B|-------7----7---7---7------7----7---7---7--7---|
G|-----9---9---9---9---9---9---9---9---9---9---9-|
D|-0~--------------------------------------------|
A|-0~--------------------------------------------|
E|-0~--------------------------------------------|

e|-----------------------------------------------|
B|-----------------------------------------------|
G|-9\-11-11-11-11---11---11---11---11---11---11--|
D|-x--x--x--x--x----x----x----x----x----x----x---|
A|-7/-9--9--9--9----9----9----9----9----9----9---|
E|-x--x--x--x--x----x----x----x----x----x----x---|

e|-----------------------------------------------------------|
B|-----------------------------------------------------------|
G|-9-9-9-9\--11-11---11---11---11---11---11---11\-9-9--------|
D|-x-x-x-x---x--x----x----x----x----x----x----x---x-x--8/0~--|
A|-7-7-7-7\--9--9----9----9----9----9----9----9\--7-7--0~----|
E|-x-x-x-x---x--x----x----x----x----x----x----x---x-x--0~----|

[Verse]
I think we have an emergency
I think we have an emergency
e|--------9----9----9------------7----7----7----------|
B|----7-----7----7----7-------7----7----7----7---7----|
G|--9---9-----9----9----9---9---9----9----9----9---9--|
D|----------------------------------------------------|
A|----------------------------------------------------|
E|----------------------------------------------------|

If you thought I'd leave, then you were wrong
Cause I won't stop holding on
e|-----------------------------------------------|
B|-----------------------------------------------|
G|-9\-11-11-11-11---11---11---11---11---11---11--|
D|-x--x--x--x--x----x----x----x----x----x----x---|
A|-7/-9--9--9--9----9----9----9----9----9----9---|
E|-x--x--x--x--x----x----x----x----x----x----x---|

e|---------------------------------------------------------|
B|---------------------------------------------------------|
G|-9-9-9-9\--11-11---11---11---11---11---11---11\-9-9------|
D|-x-x-x-x---x--x----x----x----x----x----x----x---x-x--0~--|
A|-7-7-7-7\--9--9----9----9----9----9----9----9\--7-7--0~--|
E|-x-x-x-x---x--x----x----x----x----x----x----x---x-x--0~--|

So are you listening?
So are you watching me?
e|--------9----9----9------------7----7----7----------|
B|----7-----7----7----7-------7----7----7----7---7----|
G|--9---9-----9----9----9---9---9----9----9----9---9--|
D|----------------------------------------------------|
A|----------------------------------------------------|
E|----------------------------------------------------|

If you thought I'd leave, then you were wrong
So I won't stop holding on.
e|-----------------------------------------------|
B|-----------------------------------------------|
G|-9\-11-11-11-11---11---11---11---11---11---11--|
D|-x--x--x--x--x----x----x----x----x----x----x---|
A|-7/-9--9--9--9----9----9----9----9----9----9---|
E|-x--x--x--x--x----x----x----x----x----x----x---|

e|---------------------------------------------------------|
B|---------------------------------------------------------|
G|-9-9-9-9\--11-11---11---11---11---11---11---11\-9-9------|
D|-x-x-x-x---x--x----x----x----x----x----x----x---x-x--0~--|
A|-7-7-7-7\--9--9----9----9----9----9----9----9\--7-7--0~--|
E|-x-x-x-x---x--x----x----x----x----x----x----x---x-x--0~--|

This is an emergency
So are you listening?
e|--------9----9----9------------7----7----7----------|
B|----7-----7----7----7-------7----7----7----7---7----|
G|--9---9-----9----9----9---9---9----9----9----9---9--|
D|----------------------------------------------------|
A|----------------------------------------------------|
E|----------------------------------------------------|

And I can't pretend that I don't see this
e|-----------------------------------------------|
B|-----------------------------------------------|
G|-9\-11-11-11-11---11---11---11---11---11---11--|
D|-x--x--x--x--x----x----x----x----x----x----x---|
A|-7/-9--9--9--9----9----9----9----9----9----9---|
E|-x--x--x--x--x----x----x----x----x----x----x---|

e|-------------------------------------------------------|
B|-------------------------------------------------------|
G|-9-9-9-9\--11-11---11---11---11---11---11---11\-9-9----|
D|-x-x-x-x---x--x----x----x----x----x----x----x---x-x----|
A|-7-7-7-7\--9--9----9----9----9----9----9----9\--7-7----|
E|-x-x-x-x---x--x----x----x----x----x----x----x---x-x----|

It's really not your fault
That no one cares to talk about it,
Talk about it
e|-----12--12--12-----|      |---------------|
B|--10---10--10--10---|      |---------------|
G|-9--9----9---9---9--|(8xs?)|-4-4-4--6-6-6--|
D|--------------------|      |-x-x-x--x-x-x--|
A|--------------------|      |-2-2-2--4-4-4--|
E|--------------------|      |---------------|

[Chorus](If you follow the song, you might get the rythem of this tab)
Cause I've seen love die
Way too many times
When it deserved to be alive
(When it deserved to be alive)
I've seen you cry
Way too many times
When you deserve to be alive, alive
e|---------------------------------------------------------|
B|-----------------------------------------------------e---|
G|-----------------------------------------------------s---|
D|-9--9--9-9-9-9--5-5--4--4--4-4-4-4--9--9--9-9-9-9\/--u---|
A|-9--9--9-9-9-9--0-0--4--4--4-4-4-4--9--9--9-9-9-9\/--a---|
E|-9--9--9-9-9-9--0-0--4--4--4-4-4-4--7--7--7-7-7-7\/--p---|
(The "\/" means you do a quick slide by going forward and backward)

e|-------------------------------------------------------------|
B|-------------------------------------------------------------|
G|-------------------------------------------------------------|
D|-9--9--9-9-9-9--4--4--4-4-4-4--2--2--2-2-2-2--9--9--9-9-9-9--|
A|-9--9--9-9-9-9--4--4--4-4-4-4--2--2--2-2-2-2--9--9--9-9-9-9--|
E|-9--9--9-9-9-9--4--4--4-4-4-4--2--2--2-2-2-2--9--9--9-9-9-9--| Continue..

e|---------------------------------------------------------------|
B|---------------------------------------------e-----------------|
G|---------------------------------------------s-----------------|
D|-4-4--5-5-5-5--4-4--4-4-4-4--9--9--9-9-9-9\/-u-9--9--9-9-9-9---|
A|-4-4--0-0-0-0--4-4--4-4-4-4--9--9--9-9-9-9\/-a-9--9--9-9-9-9---|
E|-4-4--0-0-0-0--4-4--4-4-4-4--7--7--7-7-7-7\/-p-9--9--9-9-9-9---| Continue..

e|------------------------------------------------|
B|------------------------------------------------|
G|------------------------------------------------|
D|-4-4--5-5-5-5--4--4--4-4-4-4--2--2--2-2-2-2p0~--|
A|-4-4--0-0-0-0--4--4--4-4-4-4--2--2--2-2-2-2p0~--|
E|-4-4--0-0-0-0--4--4--4-4-4-4--2--2--2-2-2-2p0~--|

End of the Chorus
e|--------9----9----9------------7----7----7----------|
B|----7-----7----7----7-------7----7----7----7---7----|
G|--9---9-----9----9----9---9---9----9----9----9---9--|
D|----------------------------------------------------|
A|----------------------------------------------------|
E|----------------------------------------------------|

[Verse II]
So you give up every chance you get
Just to feel new again
e|-----------------------------------------------|
B|-----------------------------------------------|
G|-9\-11-11-11-11---11---11---11---11---11---11--|
D|-x--x--x--x--x----x----x----x----x----x----x---|
A|-7/-9--9--9--9----9----9----9----9----9----9---|
E|-x--x--x--x--x----x----x----x----x----x----x---|

e|-----------------------------------------------------------|
B|-----------------------------------------------------------|
G|-9-9-9-9\--11-11---11---11---11---11---11---11\-9-9--------|
D|-x-x-x-x---x--x----x----x----x----x----x----x---x-x--8/0~--|
A|-7-7-7-7\--9--9----9----9----9----9----9----9\--7-7--0~----|
E|-x-x-x-x---x--x----x----x----x----x----x----x---x-x--0~----|

I think we have an emergency
I think we have an emergency
e|--------9----9----9------------7----7----7----------|
B|----7-----7----7----7-------7----7----7----7---7----|
G|--9---9-----9----9----9---9---9----9----9----9---9--|
D|----------------------------------------------------|
A|----------------------------------------------------|
E|----------------------------------------------------|

And you do your best to show me love,
but you don't know what love is.
e|-----------------------------------------------|
B|-----------------------------------------------|
G|-9\-11-11-11-11---11---11---11---11---11---11--|
D|-x--x--x--x--x----x----x----x----x----x----x---|
A|-7/-9--9--9--9----9----9----9----9----9----9---|
E|-x--x--x--x--x----x----x----x----x----x----x---|

e|---------------------------------------------------------|
B|---------------------------------------------------------|
G|-9-9-9-9\--11-11---11---11---11---11---11---11\-9-9------|
D|-x-x-x-x---x--x----x----x----x----x----x----x---x-x--0~--|
A|-7-7-7-7\--9--9----9----9----9----9----9----9\--7-7--0~--|
E|-x-x-x-x---x--x----x----x----x----x----x----x---x-x--0~--|

So are you listening?
So are you watching me?
e|--------9----9----9------------7----7----7----------|
B|----7-----7----7----7-------7----7----7----7---7----|
G|--9---9-----9----9----9---9---9----9----9----9---9--|
D|----------------------------------------------------|
A|----------------------------------------------------|
E|----------------------------------------------------|

Well I can't pretend that I don't see this
e|-----------------------------------------------|
B|-----------------------------------------------|
G|-9\-11-11-11-11---11---11---11---11---11---11--|
D|-x--x--x--x--x----x----x----x----x----x----x---|
A|-7/-9--9--9--9----9----9----9----9----9----9---|
E|-x--x--x--x--x----x----x----x----x----x----x---|

e|-------------------------------------------------------|
B|-------------------------------------------------------|
G|-9-9-9-9\--11-11---11---11---11---11---11---11\-9-9----|
D|-x-x-x-x---x--x----x----x----x----x----x----x---x-x----|
A|-7-7-7-7\--9--9----9----9----9----9----9----9\--7-7----|
E|-x-x-x-x---x--x----x----x----x----x----x----x---x-x----|

It's really not your fault
That no one cares to talk about it,
Talk about it
e|-----12--12--12-----|      |---------------|
B|--10---10--10--10---|      |---------------|
G|-9--9----9---9---9--|(8xs?)|-4-4-4--6-6-6--|
D|--------------------|      |-x-x-x--x-x-x--|
A|--------------------|      |-2-2-2--4-4-4--|
E|--------------------|      |---------------|

[Chorus II]
Cause I've seen love die
Way too many times
When it deserved to be alive
(When it deserved to be alive)
I've seen you cry
Way too many times
When you deserve to be alive, alive
e|---------------------------------------------------------|
B|-----------------------------------------------------e---|
G|-----------------------------------------------------s---|
D|-9--9--9-9-9-9--5-5--4--4--4-4-4-4--9--9--9-9-9-9\/--u---|
A|-9--9--9-9-9-9--0-0--4--4--4-4-4-4--9--9--9-9-9-9\/--a---|
E|-9--9--9-9-9-9--0-0--4--4--4-4-4-4--7--7--7-7-7-7\/--p---|
(The "\/" means you do a quick slide by going forward and backward)

e|-------------------------------------------------------------|
B|-------------------------------------------------------------|
G|-------------------------------------------------------------|
D|-9--9--9-9-9-9--4--4--4-4-4-4--2--2--2-2-2-2--9--9--9-9-9-9--|
A|-9--9--9-9-9-9--4--4--4-4-4-4--2--2--2-2-2-2--9--9--9-9-9-9--|
E|-9--9--9-9-9-9--4--4--4-4-4-4--2--2--2-2-2-2--9--9--9-9-9-9--| Continue..

e|---------------------------------------------------------------|
B|---------------------------------------------e-----------------|
G|---------------------------------------------s-----------------|
D|-4-4--5-5-5-5--4-4--4-4-4-4--9--9--9-9-9-9\/-u-9--9--9-9-9-9---|
A|-4-4--0-0-0-0--4-4--4-4-4-4--9--9--9-9-9-9\/-a-9--9--9-9-9-9---|
E|-4-4--0-0-0-0--4-4--4-4-4-4--7--7--7-7-7-7\/-p-9--9--9-9-9-9---| Continue..

e|------------------------------------------------|
B|------------------------------------------------|
G|------------------------------------------------|
D|-4-4--5-5-5-5--4--4--4-4-4-4--2--2--2-2-2-2p0~--|
A|-4-4--0-0-0-0--4--4--4-4-4-4--2--2--2-2-2-2p0~--|
E|-4-4--0-0-0-0--4--4--4-4-4-4--2--2--2-2-2-2p0~--|
These scars, they will not fade away.

[Solo]
e|---------4-5-4-----------4-5-4---4-7-9-7----7-9-5-4-----|
B|-----4-5-------5-----4-5-------5---------5v-------------|
G|-2/4-------------2/4------------------------------------|
D|--------------------------------------------------------|
A|--------------------------------------------------------|
E|--------------------------------------------------------|

e|---------4-5-4---4-7-9-12---------17-16--------17-16-------12----9r------|
B|-----4-5-------5----------10v--14-------17-14v-------17-14----10----9~v--|
G|-2/4---------------------------------------------------------------------|
D|-------------------------------------------------------------------------|
A|-------------------------------------------------------------------------|
E|-------------------------------------------------------------------------|

**Or**

e|----------9-10-9-------------9-10-9----9-12-14-12-----12-14-12-9r------|
B|-----9-10--------10-----9-10--------10------------10v-------------10v--|
G|-7/9----------------7/9------------------------------------------------|
D|-----------------------------------------------------------------------|
A|-----------------------------------------------------------------------|
E|-----------------------------------------------------------------------|

e|----------9-10-9----9-12-14-17-----17-16--------17-16-------12-----------|
B|-----9-10--------10------------14v-------17-14v-------17-14----10~-9v~---|
G|-7/9---------------------------------------------------------------------|
D|-------------------------------------------------------------------------|
A|-------------------------------------------------------------------------|
E|-------------------------------------------------------------------------|

End of the Solo
No one cares to talk about it, talk about it
e|-----------9---9---9-----------7---7---7-------|
B|-------7----7---7---7------7----7---7---7--7---|
G|-----9---9---9---9---9---9---9---9---9---9---9-|
D|-0~--------------------------------------------|
A|-0~--------------------------------------------|
E|-0~--------------------------------------------|

[Outro]
Cause I've seen love die
Way too many times
When it deserved to be alive
(When it deserved to be alive)
I've seen you cry
Way too many times
When you deserve to be alive, alive
e|--------------------------------------------------------|
B|----------------------------------------------------e---|
G|----------------------------------------------------s---|
D|-9--9--9-9-9-9--2/5-4--4--4-4-4-4--9--9--9-9-9-9\/--u---|
A|-9--9--9-9-9-9--0---4--4--4-4-4-4--9--9--9-9-9-9\/--a---|
E|-9--9--9-9-9-9--0---4--4--4-4-4-4--7--7--7-7-7-7\/--p---|
(The "\/" means you do a quick slide by going forward and backward)

e|-------------------------------------------------------------|
B|-------------------------------------------------------------|
G|-------------------------------------------------------------|
D|-9--9--9-9-9-9--4--4--4-4-4-4--2--2--2-2-2-2--9--9--9-9-9-9--|
A|-9--9--9-9-9-9--4--4--4-4-4-4--2--2--2-2-2-2--9--9--9-9-9-9--|
E|-9--9--9-9-9-9--4--4--4-4-4-4--2--2--2-2-2-2--9--9--9-9-9-9--| Continue..

e|---------------------------------------------------------------|
B|---------------------------------------------e-----------------|
G|---------------------------------------------s-----------------|
D|-4-4--5-5-5-5--4-4--4-4-4-4--9--9--9-9-9-9\/-u-9--9--9-9-9-9---|
A|-4-4--0-0-0-0--4-4--4-4-4-4--9--9--9-9-9-9\/-a-9--9--9-9-9-9---|
E|-4-4--0-0-0-0--4-4--4-4-4-4--7--7--7-7-7-7\/-p-9--9--9-9-9-9---| Continue..

e|---------------------------------------------|
B|---------------------------------------------|
G|---------------------------------------------|
D|-4-4--2/5---4--4--4-4-4-4--2--2--2-2-2-2-----|
A|-4-4--0-----4--4--4-4-4-4--2--2--2-2-2-2-----|
E|-4-4--0-----4--4--4-4-4-4--2--2--2-2-2-2-----|

e|--------------------------------------|
B|--------------------------------------|
G|-2--2--2--2--2--2--2--x--2--x--0--4~--|
D|-0--x--0--x--0--x--0--x--0--x--0--4~--|
A|-0--x--0--x--0--x--0--x--0--x--0--4~--|
E|-0--x--0--x--0--x--0--x--0--x--0--4~--|
(Im not sure about this part)

Questions? Leave me a message =)

Love_The_Music92@hotmail.com(Myspace or E-mail)

************************************

| ~  Vibrato
| \  Slide down
| x  Dead note
| /  Slide up
| p  Pull-off
| r  Release

************************************

            
            
Suggest correction
Creating personal tab
Creating personal tab
You can edit any tab online and save it as your Personal.

You can edit, replace or remove any tab part or add personal notes – all changes will be seen only by you.

Personal tabs can be accessed anytime from any device, even offline.
Learn more »
comments
print report bad tab
20 comments total. Showing first comments.
+1 reply
flipf 71 Aug 05, 2007 07:59 PM

I'm pretty sure that it's in Drop D, because if you played it in E it would sound horrible!

0 reply
F1rstAct 94 Aug 06, 2007 09:25 AM

It says that its in Drop D but since you said it has an E
Alrighty =) I fixed it.

0 reply
lackofcolor 388 Aug 09, 2007 08:04 PM

The solo is off. go to www.fbrplus.com and watch him play it.

guest
You may want to rate the tab now too:
select rating
Wanna post a correction for this tab? Suggest correction