Oops, an error
Loading. Please wait.
7,557 views 1 this week
1 commentread comment
1 2 3 4 5
1 last vote to show rating
add to favorites
×
Save as Personal and add changes to this tab that will be seen only by you. Learn more ›
×
You can save this tab as Personal to edit and correct it or add notes. All changes will be seen only by you. Learn more »
launch autoscroll
font size
0
reset
how to read this tab
guitar tuner
edit
Autoscroll
slow
fast
+/-
esc
set tempo
stop
Author
Difficulty
-------------------------------------------------------------------------------
                             Emergency - Paramore
-------------------------------------------------------------------------------
Tabbed by: Meiggymon
Email: Cheeko_kidd28@hotmail.com

Mah first tab ^__^. I absolutely LOVE this song&&the band is AMAZING. Im doing this song 
a school project, and thought that others would like to learn this song too! 
i havent found any tabs that sound right to meh. >__< No offence guys!
This song is repeatative, so it shouldnt take long to learn. Listen to the song and 
figure out the timing/strumming. Comment if you see anything wrong. =] Lyrics are at the 
Enjoys!!!!!!

Tuning: eBGDAE

Intro
e|--------9---------9---------9----------------------------------------------|
B|--7---------7---------7---------7-----7------------------------------------|
G|-----9---------9---------9---------9---------------------------------------|
D|---------------------------------------------------------------------------|
A|---------------------------------------------------------------------------|
E|---------------------------------------------------------------------------|

e|--------7---------7---------7----------------------------------------------|
B|--7---------7---------7---------7-----7------------------------------------|
G|-----9---------9---------9---------9---------------------------------------|
D|---------------------------------------------------------------------------|
A|---------------------------------------------------------------------------|
E|---------------------------------------------------------------------------|

Verse [You can mute the 4th string if you want]
e|--------------------------------------------------|------------------------|
B|--------------------------------------------------|------------------------|
G|--7/9---9---9---9----9----9----9----9---7--7--7---|------------------------|
D|------------------------------------------------x2|--0---------------------|
A|--9/11--11--11--11---11---11---11---11--9--9--9---|--0---------------------|
E|--------------------------------------------------|--0---------------------|

Intro
Verse
Intro
Verse
Intro
Verse

Bridge
e|--12----------12----------12----------12----------12-----------------------|
B|------12----------12----------12----------12----------12------12-----------|
G|----------11----------11----------11----------11----------11--------x3-----|
D|---------------------------------------------------------------------------|
A|---------------------------------------------------------------------------|
E|---------------------------------------------------------------------------|

e|--12----------12----------12-----------------------------------------------|
B|------12----------12-------------------------------------------------------|
G|----------11----------11---------------------------------------------------|
D|---------------------------------------------------------------------------|
A|---------------------------------------------------------------------------|
E|---------------------------------------------------------------------------|

Small Riff [You can mute the 4th string if you want]
e|---------------------------------------------------------------------------|
B|---------------------------------------------------------------------------|
G|--4--4--4--4----6--6--6--6-------------------------------------------------|
D|---------------------------------------------------------------------------|
A|--2--2--2--2----4--4--4--4-------------------------------------------------|
E|---------------------------------------------------------------------------|

Chorus x2
e|---------------------------------------------------------------------------|
B|---------------------------------------------------------------------------|
G|--11-11-11-11-11------------------------6--6--6--6--6---9--9--9--9--9--9--9|
D|--9--9--9--9--9---0--0--0--0--0--0--0---4--4--4--4--4---7--7--7--7--7--7--7|
A|--9--9--9--9--9---0--0--0--0--0--0--0---4--4--4--4--4---7--7--7--7--7--7--7|
E|--9--9--9--9--9---0--0--0--0--0--0--0---4--4--4--4--4---7--7--7--7--7--7--7|

e|---------------------------------------------------------------------------|
B|---------------------------------------------------------------------------|
G|--11-11-11-11--0--0--0--0--0--0--0---6--6--6--6--6---4--4--4--4--4--4--4---|
D|--9--9--9--9---0--0--0--0--0--0--0---4--4--4--4--4---2--2--2--2--2--2--2--0|
A|--9--9--9--9---0--0--0--0--0--0--0---4--4--4--4--4---2--2--2--2--2--2--2--0|
E|--9--9--9--9---0--0--0--0--0--0--0---4--4--4--4--4---2--2--2--2--2--2--2--0|

Intro
Verse
Intro
Verse
Intro
Verse
Bridge
Small Riff
Chorus
Intro
Bridge

Solo
e|-----------4--5--4---------------4--5--4-----4--7--9--7-----7--9--5--4-----|
B|--------5-----------5---------5-----------5--------------5-----------------|
G|--2--4------------------2--4-----------------------------------------------|
D|---------------------------------------------------------------------------|
A|---------------------------------------------------------------------------|
E|---------------------------------------------------------------------------|

e|-----------4--5--4-----4--7--9--12-------17--16--12--9/--17--16--12--------|
B|--------5-----------5---------------10/------------------------------10/9--|
G|--2--4---------------------------------------------------------------------|
D|---------------------------------------------------------------------------|
A|---------------------------------------------------------------------------|
E|---------------------------------------------------------------------------|


Solo [Backgroud]
e|---------------------------------------------------------------------------|
B|---------------------------------------------------------------------------|
G|--2--2--2--2--2--2--2--2--2/4--4--4--4--4--4--4--4--4--4--4----------------|
D|--2--2--2--2--2--2--2--2--2/4--4--4--4--4--4--4--4--4--4--4----------------|
A|--2--2--2--2--2--2--2--2--2/4--4--4--4--4--4--4--4--4--4--4----------------|
E|--2--2--2--2--2--2--2--2--2/4--4--4--4--4--4--4--4--4--4--4----------------|

e|---------------------------------------------------------------|-----------|
B|---------------------------------------------------------------|-----------|
G|--------------------------9/11-------------------------9/11----|--2/4p0----|
D|--0--0--0--0--0--0--0--0-------0--0--0--0--0--0--0--0-------x2-|--2/4p0----|
A|--0--0--0--0--0--0--0--0--7/9--0--0--0--0--0--0--0--0--7/9-----|--2/4p0----|
E|--0--0--0--0--0--0--0--0-------0--0--0--0--0--0--0--0----------|--2/4p0----|

Intro
Chorus

Outro
e|---------------------------------------------------------------------------|
B|---------------------------------------------------------------------------|
G|---------------------------------------------------------------------------|
D|--0---0---0---0---0---0---0---0--7-----------------------------------------|
A|--0---0---0---0---0---0---0---0--4-----------------------------------------|
E|--0---0---0---0---0---0---0---0--4-----------------------------------------|

| /  slide up
| \  slide down
| h  hammer-on
| p  pull-off
| ~  vibrato
| +  harmonic
| x  Mute note
------------------------------------------------------------------------------
Lyrics;

[Intro]
I think we have an emergency
I think we have an emergency

[Verse]
If you thought I'd leave, then you were wrong
Cause I won't stop holding on

[Intro]
So are you listening?
So are you watching me?

[Verse]
If you thought I'd leave, then you were wrong
Cause I won't stop holding on.

[Intro]
This is an emergency
So are you listening?

[Verse]
And I can't pretend that I don't see this

[Bridge]
It's really not your fault
That no one cares to talk about it,
Talk about it

[Chorus]
Cause I've seen love die
Way too many times
When it deserved to be alive
(It deserved to be alive)
I've seen you cry
Way too many times
When you deserve to be alive, alive

[Verse]
So you give up every chance you get
Just to feel new again

[Intro]
I think we have an emergency
I think we have an emergency

[Verse]
And you do your best to show me love,
but you don't know what love is.

[Intro]
So are you listening?
So are you watching me?

[Verse]
Well I can't pretend that I don't see this

{Bridge]
It's really not your fault
That no one cares to talk about it,
Talk about it

[Chorus]
Cause I've seen love die
Way too many times
When it deserved to be alive
(It deserved to be alive)
I've seen you cry
Way too many times
When you deserve to be alive, alive

[Bridge]
These scars, they will not fade away.

[Intro]
No one cares to talk about it, talk about it

[Chorus]
Cause I've seen love die
Way too many times
When it deserved to be alive
(It deserved to be alive)
I've seen you cry
Way too many times
When you deserve to be alive, alive

===============================================================================

            
            
Suggest correction
Creating personal tab
Creating personal tab
You can edit any tab online and save it as your Personal.

You can edit, replace or remove any tab part or add personal notes – all changes will be seen only by you.

Personal tabs can be accessed anytime from any device, even offline.
Learn more »
Give kudos to tab author, rate the tab!
1 2 3 4 5
comments
print report bad tab
1 comment total.
0 reply
paramore-crazy 10 Oct 02, 2009 09:36 AM

its good but it just needs a little alteration:

instead of going straight onto 7 you need a 9 on the G string first.
thats all XD

guest
You may want to rate the tab now too:
select rating
Wanna post a correction for this tab? Suggest correction