Oops, an error
Loading. Please wait.
29,981 views 1 this week
1 commentread comment
1 2 3 4 5
x 4
add to favorites
×
Save as Personal and add changes to this tab that will be seen only by you. Learn more ›
×
You can save this tab as Personal to edit and correct it or add notes. All changes will be seen only by you. Learn more »
launch autoscroll
font size
0
reset
how to read this tab
guitar tuner
edit
Autoscroll
slow
fast
+/-
esc
set tempo
stop
Author
-------------------------------------------------------------------------------
                             Emergency - Paramore
-------------------------------------------------------------------------------

This is my first tab please rate.

Tabbed by: Kevin Garcia
Email: sg.player.93@gmail.com

Tuning:DAdGBe

I'm preety sure its 95% correct or maby more.
I've played guitar for 3 years now,
and I'm just a 14 year old who likes the song.
Enjoy!

There is 2 guitars in this song


Intro (Clean) Guitar I
e|-------9-----9-----9-----------------7-----7----7------------------------|
B|---7-----7-----7-----7---7------7------7-----7----7---7------------------|
G|-9---9-----9-----9-----9---9--9---9------9----9-----9--------------------|
d|-------------------------------------------------------------------------|
A|-------------------------------------------------------------------------|
D|-------------------------------------------------------------------------|

Intro (Distorted) Guitar I 
e|-------------------------------------------------------------------------|
B|-------------------------------------------------------------------------|
G|-9/11-11-11-11-11-11-11/9--9--9--9--9/11-11-11-11-11-11-11/9--9--9-------|
d|-X-X--X--X--X--X--X--X--X--X--X--X--X-X--X--X--X--X--X--X--X--X--X-------|
A|-7/9--9--9--9--9--9--9/-7--7--7--7--7/9--9--9--9--9--9--9/-7--7--7-------|
D|-------------------------------------------------------------------------|

Intro (Distorted) Guitar II 
e|-------------------------------------------------------------------------|
B|-------------------------------------------------------------------------|
G|-------------------------------------------------------------------------|
d|-2-4--4--4--4--4--4--4--2--2--2--2--2--4--4--4--4--4--4--4--2--2--2------|
A|-2-4--4--4--4--4--4--4--2--2--2--2--2--4--4--4--4--4--4--4--2--2--2------|
D|-2-4--4--4--4--4--4--4--2--2--2--2--2--4--4--4--4--4--4--4--2--2--2------|

Verse (Clean) Guitar I 
e|-------9-----9-----9-----------------7-----7----7------------------------|
B|---7-----7-----7-----7---7------7------7-----7----7----------------------|
G|-9---9-----9-----9-----9---9--9---9------9----9-----9--------------------|
d|-------------------------------------------------------------------------|
A|-------------------------------------------------------------------------|
D|-------------------------------------------------------------------------|

Verse (Distorted) Guitar II  hold the note until the clean verse ends
e|-------------------------------------------------------------------------|
B|-------------------------------------------------------------------------|
G|-------------------------------------------------------------------------|
d|-0-----------------------------------------------------------------------|
A|-0-----------------------------------------------------------------------|
D|-0-----------------------------------------------------------------------|
   *
Verse (Distorted) Guitar I 
e|-------------------------------------------------------------------------|
B|-------------------------------------------------------------------------|
G|-9/11-11-11-11-11-11-11/9--9--9--9--9/11-11-11-11-11-11-11/9--9--9-------|
d|-X-X--X--X--X--X--X--X--X--X--X--X--X-X--X--X--X--X--X--X--X--X--X-------|
A|-7/9--9--9--9--9--9--9/-7--7--7--7--7/9--9--9--9--9--9--9/-7--7--7-------|
D|-------------------------------------------------------------------------|

Verse (Distorted) Guitar II 
e|-------------------------------------------------------------------------|
B|-------------------------------------------------------------------------|
G|-------------------------------------------------------------------------|
d|-2-4--4--4--4--4--4--4--2--2--2--2--2--4--4--4--4--4--4--4--2--2--2------|
A|-2-4--4--4--4--4--4--4--2--2--2--2--2--4--4--4--4--4--4--4--2--2--2------|
D|-2-4--4--4--4--4--4--4--2--2--2--2--2--4--4--4--4--4--4--4--2--2--2------|

Repeat all of the verse until pre-chorus starts.


I'm to sure about this part but it works
Pre-Chorus (Clean) Guitar I 
e|-12-----12-----12-----12-----12---12-----12-----12-----12------12--------|
B|---12-----12-----12-----12-----12---14-----14-----14------14-----14------|
G|-----14-----14-----14-----14----------14-----14-----14-------14----------|
d|-------------------------------------------------------------------------|
A|-------------------------------------------------------------------------|
D|-------------------------------------------------------------------------|

e|-12-----12-----12-----12-----12---12-----12-----12-----12----------------|
B|---12-----12-----12-----12-----12---12-----12-----12------12-------------|
G|-----14-----14-----14-----14----------14-----14-----14-------14----------|
d|-------------------------------------------------------------------------|
A|-------------------------------------------------------------------------|
D|-------------------------------------------------------------------------|

Pre-Chorus (Clean) Guitar II 
e|-0-----0--0-0-0------0--0-0-0-------0-0-0-0------------------------------|
B|-0-----0--0-0-0------0--0-0-0-------0-0-0-0------------------------------|
G|-4-----4--6-6-6------6--2-2-2-------4-2-2-2------------------------------|
d|-2-----2--4-4-4------4--0-0-0-------2-0-0-0------------------------------|
A|-------------------------------------------------------------------------|
D|-------------------------------------------------------------------------|
   *            *             *             *
Pre-Chorus (Distorted) Guitar II guitar 2 cuts in righ befor the chorus
e|-------------------------------------------------------------------------|
B|-------------------------------------------------------------------------|
G|-4-4-4-4/6-6-6-6---------------------------------------------------------|
d|-X-X-X-X-X-X-X-X---------------------------------------------------------|
A|-2-2-2-2/4-4-4-4---------------------------------------------------------|
D|-------------------------------------------------------------------------|

CHorus (Distorted) Guitar I
e|-------------------------------------------------------------------------|
B|-10--10--9--9--10--10---9--9--10---10---9---9---10---10---12---12--------|
G|---9---9--9--9---9----9--9--9----9----9---9---9----9----9----9----9------|
d|-------------------------------------------------------------------------|
A|-------------------------------------------------------------------------|
D|-------------------------------------------------------------------------|
repeat until the chorus ends

Chorus (Distorted) Guitar II
e|-------------------------------------------------------------------------|
B|-------------------------------------------------------------------------|
G|-------------------------------------------------------------------------|
d|-4-4-4-4-4-0-0-0-0-0-0-4-4-4-4-4-7-7-7-7-7-7-----------------------------|
A|-4-4-4-4-4-0-0-0-0-0-0-4-4-4-4-4-7-7-7-7-7-7-----------------------------|
D|-4-4-4-4-4-0-0-0-0-0-0-4-4-4-4-4-7-7-7-7-7-7-----------------------------|

e|-------------------------------------------------------------------------|
B|-------------------------------------------------------------------------|
G|-------------------------------------------------------------------------|
d|-4-4-4-4-4-0-0-0-0-0-0-4-4-4-4-4-2-2-2-2-2-2-----------------------------|
A|-4-4-4-4-4-0-0-0-0-0-0-4-4-4-4-4-2-2-2-2-2-2-----------------------------|
D|-4-4-4-4-4-0-0-0-0-0-0-4-4-4-4-4-2-2-2-2-2-2-----------------------------|
Repeat chorus 2x

Solo
e|-------------------------------------------------------------------------|
B|-------------------------------------------------------------------------|
G|-----9-13-14-13-9-----9-13-14-13-9-13-16-18-16-9-16-18-14-13-------------|
d|-7-9--------------7-9----------------------------------------------------|
A|-------------------------------------------------------------------------|
D|-------------------------------------------------------------------------|

e|---------------------------------17-16------17-16------------------------|
B|---------------------------17----------17---------17---------------------|
G|-----9-13-14-13-9-13-16-18----14---------18----------14-13---------------|
d|-7-9---------------------------------------------------------------------|
A|-------------------------------------------------------------------------|
D|-------------------------------------------------------------------------|



Order:
Intro
Verse
Pre-Chorus
Chorus
Verse
Pre-Chorus
Chorus
Verse (Clean part only!)
Pre-Chorus
Solo
Pre-Chorus
Verse (clean part only)
Chorus
Outro





| /  slide 
| h  hammer-on
| *  Longer note
| p  pull-off
| ~  vibrato
| +  harmonic
| x  Mute note
===============================================================================

            
            
Suggest correction
Creating personal tab
Creating personal tab
You can edit any tab online and save it as your Personal.

You can edit, replace or remove any tab part or add personal notes – all changes will be seen only by you.

Personal tabs can be accessed anytime from any device, even offline.
Learn more »
comments
print report bad tab
1 comment total.
0 reply
ronal21gato 10 May 12, 2014 08:31 AM

good tab is nice

guest
You may want to rate the tab now too:
select rating
Wanna post a correction for this tab? Suggest correction