Oops, an error
Loading. Please wait.

Fast In My Car Tab

version 1
version 1

Whole song

Interactive

18,060 views 39 this week
4 commentsread comments
1 2 3 4 5
accurate
x 17
add to favorites
launch autoscroll
font size
0
reset
how to read this tab
guitar tuner
Tab Pro tools
  • play this tab
  • loop segment
  • change instrument
  • show fretboard
  • metronome
Autoscroll
slow
fast
+/-
esc
set tempo
stop
Contributor
Difficulty
novice
PARAMORE
Fast in my car
Standard tuning
tabbed by: Claire

Intro:
|--0---0---0---0---0---0---|
|--0---0---0---0---0---0---|
|--0---0---0---0---0---0---|
|--0---0---0---0---0---0---|
|--0---0---0---0---0---0---|
|--0---0---0---0---0---0---|

(Riff)
|-------------------|-------------------|
|-------------------|-------------------|
|-------------------|-------------------|
|----------9--------|----------9--------|
|----5----------22--|----5---------252--|
|--3---3-7---7--00--|--3---3-7---7-030--| x2

Verse:
Bass plays the riff
Then guitar plays:
|----3-2---|----3-2---------|----3-2---|----3-2----------|
|--3-----0-|--3-----0---3---|--3-----0-|--3-----0--------|
|----------|----------0---4-|----------|-----------------|
|----------|----------------|----------|-----------------|
|----------|----------------|----------|----------7-10-7-|
|----------|----------------|----------|-----------------|

Chorus:
Guitar 1:
|-----------------------2-3-2----|------------------------2-7--|
|----3-0---3-0----3-0---------3--|----3-0----3-0----3-0--------|
|--0-----00----00-----0----------|--0-----00-----00-----0------|
|--------------------------------|-----------------------------|
|--------------------------------|-----------------------------|
|--------------------------------|-----------------------------|

-----------------------2-3-2----|-------------------------------|
----3-0---3-0----3-0---------3--|----3-0----3-0----3-0-------3--|
--0-----00----00-----0----------|--0-----00-----00-----0-2-4----|
--------------------------------|-------------------------------|
--------------------------------|-------------------------------|
--------------------------------|-------------------------------|

Guitar 2:
|------------------|------------------|
|------------------|------------------|
|------------------|--------------55--|
|--55-599-922-222--|--55-599-922-255--|
|--55-599-922-222--|--55-599-922-233--|
|--33-377-700-000--|--33-377-700-0----| x2

Pre Rit:
|---------------|
|---------------|
|---------------|
|----------9----|
|----5----------|
|--3---3-7---7--|

Verse:
Bass plays the riff
Guitar plays (each note many times, just figure it out)
|-------------------|------17--19------|
|---17--19--20--17--|--17----------17--|
|-------------------|------------------|
|-------------------|------------------|
|-------------------|------------------|
|-------------------|------------------|

Chorus.

Interlude:
|---------------------------------|------------------------------------------|
|---------------------------------|------------------------------------------|
|--22-------22--------------------|------------------------------------------|
|--22-------22-------4------4-44--|----2---2----2---2---2---2----2---2-------|
|--00--12b--00--10b--4--9b--4-44--|----2---2----2---2---2---2----2---2---X2--|
|--------------------2------2-22--|--0---0---00---0---0---0---00---0---------|

|---------------|     |----------------------------------------------------|
|---------------|     |----------------------------------------------------|
|---------------|     |--999911111111121212121414141416161616171717171919--|
|----------9----|     |----------------------------------------------------|
|----5----------|     |----------------------------------------------------|
|--3---3-7---7--| x3  |----------------------------------------------------|

Chorus x2

2nd time Guitar 1 plays (each note many times, just figure it out)
|-------------------|------17--19------|
|---17--19--20--17--|--17----------17--|
|-------------------|------------------|
|-------------------|------------------|
|-------------------|------------------|
|-------------------|------------------|

End:
|-----------------|
|-----------------|
|-----------------|
|----------9------|
|----5------------|
|--3---3-7---7/0--|
comments
print report bad tab
4 comments total. Showing first comments.
0 reply
locolucho1999 wrote on April 14 2013, 03:40 pm

I think it would be better like the riff:
|---------------|
|---------------|
|---------------|
|-555-999--335--|
|-555-999--335--|
|-555-999--335--|
GOOGLE TRANSLATOR \m/

0 reply
locolucho1999 wrote on April 14 2013, 03:41 pm

but in drop d

+2 reply
estepper1 wrote on July 1 2013, 01:54 pm

(Riff)
|-------------------|-------------------|
|-------------------|-------------------|
|-------------------|-------------------|
|----------9--------|----------9--------|
|----5-------7--22--|----5-------7-252--|
|--3---3-7------00--|--3---3-7--------

--| x2

I think that sounds better

I want to post or [tab]
guest
You may want to rate the tab now too:
select rating
Please do not post tabs as comments. Select "correction" instead!