Oops, an error
Loading. Please wait.

Fast In My Car Tab

version 3
version 3

Whole song

Interactive

16 views 1 this week
no commentswrite comment
1 2 3 4 5
3 more votes to show rating
add to favorites
launch autoscroll
font size
0
reset
how to read this tab
guitar tuner
Autoscroll
slow
fast
+/-
esc
set tempo
stop
Help us to improve Ultimate-Guitar.com Take our survey!
×
Author
Tuning
D A D G B E
*************************************************************************************************************

                                          Paramore - Fast In My Car
                              Album: Paramore / Self-Titled Deluxe [2013/2014]

*************************************************************************************************************

Tuning: Drop D, DADGBe



[Intro]

   Guitar 1

e|---0----------|
B|---0----------|
G|---0----------|
D|---0----------|
A|---0----------|
D|---0---(6x)---|


e|-----------------------------------------------------------------------------------|
B|-----------------------------------------------------------------------------------|
G|-----------------------------------------------------------------------------------|
D|---(5)------------(9)-------------2--2----(5)------------(9)-------------2--5--2---|
A|---(5)---5--------(9)---9---------2--2----(5)---5--------(9)---9---------2--5--2---|
D|----5--------5/----9--------9-----2--2/----5--------5/----9--------9-----2--5--2---|   (2x)


[Verse 1]

   Guitar 1

e|-----------------------------------------------------------------------------------|
B|-----------------------------------------------------------------------------------|
G|-----------------------------------------------------------------------------------|
D|---(5)------------(9)-------------2--2----(5)------------(9)-------------2--5--2---|
A|---(5)---5--------(9)---9---------2--2----(5)---5--------(9)---9---------2--5--2---|
D|----5--------5/----9--------9-----2--2/----5--------5/----9--------9-----2--5--2---|   (2x)


e|---------------------------------------------------------------------------------------|
B|-------------------------------------------------------------------------------3-------|
G|---------7---------12--11-----4-----------------7---------12--11-----4-----0-------4---|
D|---(5)-------(9)------------------2--2----(5)-------(9)--------------------------------|
A|---(5)-------(9)------------------2--2----(5)-------(9)--------------------------------|
D|----5/--------9-------------------2--2/----5/--------9---------------------------------|   (2x)


[Chorus]

   Guitar 1

e|------------------------------------|-----------------------------------------------|
B|------------------------------------|-----------------------------------------------|
G|------------------------------------|------------------------------------5----------|
D|---5----------9----------2----------|---5----------9----------2----------5----------|
A|---5----------9----------2----------|---5----------9----------2----------3---(2x)---|
D|---5---(4x)---9---(4x)---2---(8x)---|---5---(4x)---9---(4x)---2---(6x)--------------|   (2x)


   Guitar 2

e|-----------------------------2h3p2-----|-----------------------------2---7---|
B|-----3-0-----3-0-----3-0-----------3---|-----3-0-----3-0-----3-0-------------|
G|---0-----0-0-----0-0-----0-0-----------|---0-----0-0-----0-0-----0-0---------|
D|---------------------------------------|-------------------------------------|
A|---------------------------------------|-------------------------------------|
D|---------------------------------------|-------------------------------------|


e|-----------------------------2h3p2-----|------------------------------------|
B|-----3-0-----3-0-----3-0-----------3---|-----3-0-----3-0-----3-0--------3---|
G|---0-----0-0-----0-0-----0-0-----------|---0-----0-0-----0-0-----0-2--4-----|
D|---------------------------------------|------------------------------------|
A|---------------------------------------|------------------------------------|
D|---------------------------------------|------------------------------------|


e|------------------------------------------------|
B|------------------------------------------------|
G|------------------------------------------------|
D|---(5)------------(9)-------------2--2/---~12---|
A|---(5)---5--------(9)---9---------2--2----------|
D|----5--------5/----9--------9-----2--2----------|

 
[Verse 2]

   Guitar 1

e|-----------------------------------------------------------------------------------|
B|-----------------------------------------------------------------------------------|
G|-----------------------------------------------------------------------------------|
D|---(5)------------(9)-------------2--2----(5)------------(9)-------------2--5--2---|
A|---(5)---5--------(9)---9---------2--2----(5)---5--------(9)---9---------2--5--2---|
D|----5--------5/----9--------9-----2--2/----5--------5/----9--------9-----2--5--2---|   (4x)

  
   Guitar 2

e|-----------------------|--------17---19---------|
B|---17---19---20---17---|---17-------------17\---|
G|-----------------------|------------------------|
D|-----------------------|------------------------|
A|-----------------------|------------------------|
D|-----------------------|------------------------|   (2x)


[Chorus]

   Guitar 1

e|------------------------------------|-----------------------------------------------|
B|------------------------------------|-----------------------------------------------|
G|------------------------------------|------------------------------------5----------|
D|---5----------9----------2----------|---5----------9----------2----------5----------|
A|---5----------9----------2----------|---5----------9----------2----------3---(2x)---|
D|---5---(4x)---9---(4x)---2---(8x)---|---5---(4x)---9---(4x)---2---(6x)--------------|   (2x)


   Guitar 2

e|-----------------------------2h3p2-----|-----------------------------2---7---|
B|-----3-0-----3-0-----3-0-----------3---|-----3-0-----3-0-----3-0-------------|
G|---0-----0-0-----0-0-----0-0-----------|---0-----0-0-----0-0-----0-0---------|
D|---------------------------------------|-------------------------------------|
A|---------------------------------------|-------------------------------------|
D|---------------------------------------|-------------------------------------|


e|-----------------------------2h3p2-----|------------------------------------|
B|-----3-0-----3-0-----3-0-----------3---|-----3-0-----3-0-----3-0--------3---|
G|---0-----0-0-----0-0-----0-0-----------|---0-----0-0-----0-0-----0-2--4-----|
D|---------------------------------------|------------------------------------|
A|---------------------------------------|------------------------------------|
D|---------------------------------------|------------------------------------|



[Bridge]
(do some freestyle)


   Guitar 1

e|-------------------|
B|-------------------|
G|-------------------|
D|---\2/12---\2/10---|
A|---\2/12---\2/10---|
D|---\2/12---\2/10---|   repeat this some times



e|-------0---------0---------0---------0---|
B|-------0---------0---------0---------0---|
G|-------0---------0---------0---------0---|
D|---2-------2-2-------2-2-------2-2-------|
A|---2-------2-2-------2-2-------2-2-------|
D|---2-------2-2-------2-2-------2-2-------|   (4x)



e|----------------------------------------------------------------------------------------------1///20---|
B|-------------------------------------------------------------------------------------------------------|
G|-------------------------------------------------------------------------------------------------------|
D|---(5)------------(9)------------(5)------------(9)--------------(5)------------(9)--------------------|
A|---(5)---5--------(9)---9--------(5)---5--------(9)---9----------(5)---5--------(9)---9----------------|
D|----5--------5/----9--------9-----5--------5/----9--------9\\\----5--------5/----9--------9------------| 


[Chorus]

   Guitar 1

e|------------------------------------|-----------------------------------------------|
B|------------------------------------|-----------------------------------------------|
G|------------------------------------|------------------------------------5----------|
D|---5----------9----------2----------|---5----------9----------2----------5----------|
A|---5----------9----------2----------|---5----------9----------2----------3---(2x)---|
D|---5---(4x)---9---(4x)---2---(8x)---|---5---(4x)---9---(4x)---2---(6x)--------------|   (4x)


   Guitar 2

e|-----------------------------2h3p2-----|-----------------------------2---7---|
B|-----3-0-----3-0-----3-0-----------3---|-----3-0-----3-0-----3-0-------------|
G|---0-----0-0-----0-0-----0-0-----------|---0-----0-0-----0-0-----0-0---------|
D|---------------------------------------|-------------------------------------|
A|---------------------------------------|-------------------------------------|
D|---------------------------------------|-------------------------------------|

e|-----------------------------2h3p2-----|------------------------------------|
B|-----3-0-----3-0-----3-0-----------3---|-----3-0-----3-0-----3-0--------3---|
G|---0-----0-0-----0-0-----0-0-----------|---0-----0-0-----0-0-----0-2--4-----|
D|---------------------------------------|------------------------------------|
A|---------------------------------------|------------------------------------|
D|---------------------------------------|------------------------------------|  


e|-----------------------|--------17---19---------|
B|---17---19---20---17---|---17-------------17\---|
G|-----------------------|------------------------|
D|-----------------------|------------------------|
A|-----------------------|------------------------|
D|-----------------------|------------------------|   (2x)


[Outro]

   Guitar 1

e|----------------------------------|
B|----------------------------------|
G|----------------------------------|
D|---(5)------------(9)-------------|
A|---(5)---5--------(9)---9---------|
D|----5--------5/----9--------9b\---|



*************************************************************************************************************

|(n)   Ghost note
| /    Slide up
| h    Hammer-on
| p    Pull-off
| ~    Vibrato
| \    Slide down 

*************************************************************************************************************
Suggest correction
Give kudos to tab author, rate the tab!
1 2 3 4 5
comments
print report bad tab
guest
You may want to rate the tab now too:
select rating
Wanna post a correction for this tab? Suggest correction