Oops, an error
Loading. Please wait.
We have Chord Pro version of Feeling Sorry.
It's the closest thing you can get to the original song and it has interactive parts. Check out the tab »
×

Feeling Sorry tab

version 4
version 4

Whole song

Interactive

100 views 1 this week
no commentswrite comment
1 2 3 4 5
3 more votes to show rating
add to favorites
×
Save as Personal and add changes to this tab that will be seen only by you. Learn more ›
×
You can save this tab as Personal to edit and correct it or add notes. All changes will be seen only by you. Learn more »
launch autoscroll
font size
0
reset
how to read this tab
guitar tuner
edit
Autoscroll
slow
fast
+/-
esc
set tempo
stop
Author
About this tab version
This tab has a different intro, verse, refrain, and chorus. Was this info helpful? Yes No
Song: Feeling Sorry
Artist: Paramore
Album: Brand New Eyes
Tabber: mcast094


[Intro]
Gtr I
e|---------------------------------------------------------------------------|
B|---------------------------------------------------------------------------|
G|--------------------------------------9--9--9--9--9-9-9--9-9-9-9--8-8-8----|
D|-2--2--2--2--2-2-2--2-2-2--2--6-6-6---x--x--x--x--x-x-x--x-x-x-x--x-x-x----|
A|-2--2--2--2--2-2-2--2-2-2--2--6-6-6---7--7--7--7--7-7-7--7-7-7-7--6-6-6----|
E|-0--0--0--0--0-0-0--0-0-0--0--4-4-4---9--9--9--9--9-9-9--9-9-9-9-----------|

e|-----------------------------------------------------------------------------------|
B|-12-12-12--12--12-12-12--12-12-12--12--10-10-10------------------------------------|
G|-11-11-11--11--11-11-11--11-11-11--11--11-11-11---9-9-9-9---9-9-9--9-9-9-9--8-8-8--|
D|-9--9--9---9---9--9--9---9--9--9---9---9--9--9----x-x-x-x---x-x-x--x-x-x-x--x-x-x--|
A|--------------------------------------------------7-7-7-7---7-7-7--7-7-7-7--6-6-6--|
E|--------------------------------------------------9-9-9-9---9-9-9--9-9-9-9---------|

Gtr II
e|----------------------------------------------|-----------------------------------------------|
B|----------------------------------------------|-----------------------------------------------|
G|-11-11-11--11-11--13-9--11-11-11--11-11--13-9-|-13-13-13--13-13--13-13--13-13-13-13--11-11-11-| 
D|-x--x--x---x--x---x--x--x--x--x---x--x---x--x-|-x--x--x---x--x---x--x---x--x--x--x---x--x--x--|
A|-9--9--9---9--9---11-7--9--9--9---9--9---11-7-|-11-11-11--11-11--11-11--11-11-11-11--9--9--9--|
D|----------------------------------------------|-----------------------------------------------| 

e|----------------------------------------------|-----------------------------------------------|
B|----------------------------------------------|-----------------------------------------------|
G|-11-11-11--11-11--13-9--11-11-11--11-11--13-9-|-13-13-13--13-13--13-13--13-13-13-13-16-16-16--| 
D|-x--x--x---x--x---x--x--x--x--x---x--x---x--x-|-x--x--x---x--x---x--x---x--x--x--x--x--x--x---|
A|-9--9--9---9--9---11-7--9--9--9---9--9---11-7-|-11-11-11--11-11--11-11--11-11-11-11-14-14-14--|
D|----------------------------------------------|-----------------------------------------------|

[Verse]
Gtr I
e|-------------------------------------------------------------------|
B|-------------------------------------------------------------------|
G|-------------------------------------------------------------------|
D|-2-2-2--2-2--2-2--2-2--2-2-6-6-6---6-6-6--6-6--6-6--6-6--6-6-4-4-4-|
A|-2-2-2--2-2--2-2--2-2--2-2-6-6-6---4-4-4--4-4--4-4--4-4--4-4-2-2-2-|
E|-0-0-0--0-0--0-0--0-0--0-0-4-4-4---4-4-4--4-4--4-4--4-4--4-4-2-2-2-|
   * * *  * *  * *  * *  * * * * *   * * *  * *  * *  * *  * * * * *

e|-------------------------------------------------------------------|
B|-------------------------------------------------------------------|
G|-------------------------------------------------------------------|
D|-2-2-2--2-2--2-2--2-2--2-2-4-4-4---6-6-6--6-6--6-6--6-6--6-6-4-4-4-|
A|-2-2-2--2-2--2-2--2-2--2-2-4-4-4---4-4-4--4-4--4-4--4-4--4-4-2-2-2-|
E|-0-0-0--0-0--0-0--0-0--0-0-2-2-2---4-4-4--4-4--4-4--4-4--4-4-2-2-2-|
   * * *  * *  * *  * *  * * * * *   * * *  * *  * *  * *  * *   

Gtr II
e|--------------------------------------------------------------------|
B|--------------------------------------------------------------------|
G|--------------------------------------------------------------------|
D|--------------------------------------------------------------------|
A|-9-9-9--9-9-11-7--9-9-9--9-9-11-7--4-4-4--4-4--4-4--4-4--4-4-2-2-2--|
D|--------------------------------------------------------------------|
   * * *  * * *  *  * * *  * * *  *  * * *  * *  * *  * *  * * * * *

e|--------------------------------------------------------------------|
B|--------------------------------------------------------------------|
G|-------------------------------------------------------------4-4-4--|
D|-------------------------------------------------------------4-4-4--|
A|-9-9-9--9-9-11-7--9-9-9--9-9-11-7--4-4-4--4-4--4-4--4-4--4-4-2-2-2--|
D|--------------------------------------------------------------------|
   * * *  * * *  *  * * *  * * *  *  * * *  * *  * *  * *  * * 

[Refrain]
Gtr I
e|-0-0-0-0-0-0-0-0-0-0--0-0-0-0-0-0-0-0-0--0-0-0-0-0-0-0-0-0-0--0-0-0-0-0-0-0-0-0-0-----|
B|-0-0-0-0-0-0-0-0-0-0--0-0-0-0-0-0-0-0-0--0-0-0-0-0-0-0-0-0-0--0-0-0-0-0-0-0-0-0-0-----|
G|-4-4-4-4-4-4-4-4-4-4--4-4-4-4-4-4-4-4-4--4-4-4-4-4-4-4-4-4-4--4-4-4-4-4-4-4-4-4-4-----|
D|-x-x-x-x-x-x-x-x-x-x--x-x-x-x-x-x-x-x-x--2-2-2-2-2-2-2-2-2-2--2-2-2-2-2-2-2-2-2-2-----|
A|-2-2-2-2-2-2-2-2-2-2--4-4-4-4-4-4-4-4-4--4-4-4-4-4-4-4-4-4-4--x-x-x-x-x-x-x-x-x-x-----|
E|--------------------------------------------------------------4-4-4-4-4-4-4-4-4-4-----|

e|-0-0-0-0-0-0-0-0-0-0--0-0-0-0-0-0-0-0-0--0-0-0-0-0-0-0-0-0-0--------------------------|
B|-0-0-0-0-0-0-0-0-0-0--0-0-0-0-0-0-0-0-0--0-0-0-0-0-0-0-0-0-0--------------------------|
G|-4-4-4-4-4-4-4-4-4-4--4-4-4-4-4-4-4-4-4--4-4-4-4-4-4-4-4-4-4--8-8-8-8-8-8-8-8-8-8-----|
D|-x-x-x-x-x-x-x-x-x-x--x-x-x-x-x-x-x-x-x--2-2-2-2-2-2-2-2-2-2--x-x-x-x-x-x-x-x-x-x-----|
A|-2-2-2-2-2-2-2-2-2-2--4-4-4-4-4-4-4-4-4--4-4-4-4-4-4-4-4-4-4--6-6-6-6-6-6-6-6-6-6-----|
E|--------------------------------------------------------------------------------------|

Gtr II
Guitar 2
e|-0-----------0----------0-----------0---------|
B|-0-----------0----------0-----------0---------|
G|-2-----------4----------4-----------0---------|
D|-2-----------4----------2-----------6---------|
A|-0-----------2----------4-----------6---------|
D|------------------------------------6---------|

e|-0-----------0----------0-----------------------------------------|
B|-0-----------0----------0-----------------------------------------|
G|-2-----------4----------4-----------------------------------------|
D|-2-----------4----------2-----------11-11-11-11-11-11-11-11-11-11-|
A|-0-----------2----------4-----------11-11-11-11-11-11-11-11-11-11-|
D|------------------------------------11-11-11-11-11-11-11-11-11-11-|

[Chorus]
Gtr I    
Use Digitech Whammy in this part to get the octave effect
e|---------------------------------------------------|
B|---------------------------------------------------|
G|---------------------------------------------------|
D|-6^--9--------6^--9--------6^--9-------------------|
A|-------4-4-4--------6-6-6--------4-4-4--7-6-9-9-9--|
E|---------------------------------------------------|

e|---------------------------------------------------|
B|---------------------------------------------------|
G|---------------------------------------------------|
D|-6^--9--------6^--9--------6^--9-------------------|
A|-------4-4-4--------6-6-6--------4-4-4--7-9-6------|
E|---------------------------------------------------|

Gtr II
e|----------------------------------------------------------------|
B|----------------------------------------------------------------|
G|----------------------------------------------------------------|
D|-2-2--2-7-7-7--2-2--2-9-9-9--2-2--2-7-7-7--11-11-11-11--9-9-9---|
A|-2-2--2-7-7-7--2-2--2-9-9-9--2-2--2-7-7-7--11-11-11-11--9-9-9---|
D|-2-2--2-7-7-7--2-2--2-9-9-9--2-2--2-7-7-7--11-11-11-11--9-9-9---|

e|--------------------------------------------------|
B|--------------------------------------------------|
G|--------------------------------------------------|
D|-2/9-7-7-7--2/11-9-9-9--2/9-7-7-7--11-11-11-11-9--|
A|-2/9-7-7-7--2/11-9-9-9--2/9-7-7-7--11-11-11-11-9--|
D|-2/9-7-7-7--2/11-9-9-9--2/9-7-7-7--11-11-11-11-9--|

Intro

[Verse]
Gtr I
e|----------------------------------------------------------------|
B|----------------------------------------------------------------|
G|----------------------------------------------------------------|
D|-2-2-2--2-2--2-2--2-2--2-2-6-6-6---6-6-6--6-6--6-6--6-6--6-6-4--|
A|-2-2-2--2-2--2-2--2-2--2-2-6-6-6---4-4-4--4-4--4-4--4-4--4-4-2--|
E|-0-0-0--0-0--0-0--0-0--0-0-4-4-4---4-4-4--4-4--4-4--4-4--4-4-2--|
   * * *  * *  * *  * *  * * * * *   * * *  * *  * *  * *  * * 

e|-------------------------------------------------------------------|
B|-------------------------------------------------------------------|
G|-------------------------------------------------------------------|
D|-2-2-2--2-2--2-2--2-2--2-2-4-4-4---6-6-6--6-6--6-6--6-6--6-6-4-4-4-|
A|-2-2-2--2-2--2-2--2-2--2-2-4-4-4---4-4-4--4-4--4-4--4-4--4-4-2-2-2-|
E|-0-0-0--0-0--0-0--0-0--0-0-2-2-2---4-4-4--4-4--4-4--4-4--4-4-2-2-2-|
   * * *  * *  * *  * *  * * * * *   * * *  * *  * *  * *  * *   

Gtr II
e|-----------------------------------------------------------------|
B|-----------------------------------------------------------------|
G|-------------------------------------------------------------4---|
D|-------------------------------------------------------------4---|
A|-9-9-9--9-9-11-7--9-9-9--9-9-11-7--4-4-4--4-4--4-4--4-4--4-4-2---|
D|-----------------------------------------------------------------|
   * * *  * * *  *  * * *  * * *  *  * * *  * *  * *  * *  * * 

e|--------------------------------------------------------------------|
B|--------------------------------------------------------------------|
G|-------------------------------------------------------------4-4-4--|
D|-------------------------------------------------------------4-4-4--|
A|-9-9-9--9-9-11-7--9-9-9--9-9-11-7--4-4-4--4-4--4-4--4-4--4-4-2-2-2--|
D|--------------------------------------------------------------------|
   * * *  * * *  *  * * *  * * *  *  * * *  * *  * *  * *  * * 

[Refrain]

[Chorus]

[Bridge]
Gtr I
e|-----------------------------------------------------------|
B|-----------------------------------------------------------|
G|-----------------------------------------------------------|
D|-7-7-7-7-7-7-7-7-7-7--9-9-9-9-9-9-9-9-9-9--11--13---2---4--| 2x
A|-7-7-7-7-7-7-7-7-7-7--9-9-9-9-9-9-9-9-9-9--11--13---2---4--|
E|-5-5-5-5-5-5-5-5-5-5--7-7-7-7-7-7-7-7-7-7--9---11---0---2--|

e|-------------------------------------------------------------------------------------------|
B|-------------------------------------------------------------------------------------------|
G|-------------------------------------------------------------------------------------------|
D|-7-7-7-7-7-7-7-7-7-7-7-7-7-7-7-7-7-7-7-7--9-9-9-9-9-9-9-9-9-9-9-9-9-9-9-9-9-9-9-9-9-9-9----|
A|-7-7-7-7-7-7-7-7-7-7-7-7-7-7-7-7-7-7-7-7--9-9-9-9-9-9-9-9-9-9-9-9-9-9-9-9-9-9-9-9-9-9-9----|
E|-5-5-5-5-5-5-5-5-5-5-5-5-5-5-5-5-5-5-5-5--7-7-7-7-7-7-7-7-7-7-7-7-7-7-7-7-7-7-7-7-7-7-7----|

Gtr II
e|------------------------------------------|
B|------------------------------------------|
G|-6-6-6-6-6-6--8-8-8-8-8-8--9--11-14--13---|
D|-x-x-x-x-x-x--x-x-x-x-x-x--x--x--x---x----|  2x
A|-4-4-4-4-4-4--6-6-6-6-6-6--7--9--12--11---|
D|------------------------------------------|

e|---------------------------------------------------------------|
B|---------------------------------------------------------------|
G|-6-6-6-6-6-6-6-6-6-6-6-6--11-11-11-11-11-11-11-11-11-11-11-11--|
D|-x-x-x-x-x-x-x-x-x-x-x-x--x--x--x--x--x--x--x--x--x--x--x--x---|
A|-4-4-4-4-4-4-4-4-4-4-4-4--9--9--9--9--9--9--9--9--9--9--9--9---|
D|---------------------------------------------------------------|

[Bridge 2]
Gtr I
e|----------------------------------------------------------|
B|----------------------------------------------------------|
G|----------------------------------------------------------|
D|-6--9-9-------6--9-9--------6--9-9------------------------|
A|--------4-4-4--------6-6-6---------4-4-4--7-7-6--6-9-9-9--|
E|----------------------------------------------------------|
   *  * * * * * *  * * * * *  *  * * * * *  * * *  * * * *

e|---------------------------------------------------|
B|---------------------------------------------------|
G|------------------------------------------9-11-8---|
D|-6--9-9-------6--9-9--------6--9-9--------x-x--x---|
A|--------4-4-4--------6-6-6---------4-4-4--7-9--6---|
E|---------------------------------------------------|
   *  * * * * * *  * * * * *  *  * * * * *  

Gtr II
e|----------------------------------------------------------------|
B|----------------------------------------------------------------|
G|----------------------------------------------------------------|
D|-2-2--2-7-7-7--2-2--2-9-9-9--2-2--2-7-7-7--11-11-11-11--9-9-9---|
A|-2-2--2-7-7-7--2-2--2-9-9-9--2-2--2-7-7-7--11-11-11-11--9-9-9---|
D|-2-2--2-7-7-7--2-2--2-9-9-9--2-2--2-7-7-7--11-11-11-11--9-9-9---|
   * *  * * * *  * *  * * * *  * *  * * * *  *  *  *  *   * * * 

e|--------------------------------------------------|
B|--------------------------------------------------|
G|--------------------------------------------------|
D|-2/9-7-7-7--2/11-9-9-9--2/9-7-7-7--11-11-11-11-9--|
A|-2/9-7-7-7--2/11-9-9-9--2/9-7-7-7--11-11-11-11-9--|
D|-2/9-7-7-7--2/11-9-9-9--2/9-7-7-7--11-11-11-11-9--|
   * * * * *  * *  * * *  * * * * *  

Gtr III
e|-0--0--0--0--0--0--0--0--0--0---0--0--0--0--0--0--0--0--0--0--0--0-|
B|-0--0--0--0--0--0--0--0--0--0---0--0--0--0--0--0--0--0--0--0--0--0-|
G|-16-16-16-16-16-16-16-16-16-16--16-16-16-16-16-16-16-16-16-16-16-16|
D|-x--x--x--x--x--x--x--x--x--x---x--x--x--x--x--x--x--x--x--x--x--x-|
A|-14-14-14-14-14-14-14-14-14-14--14-14-14-14-14-14-14-14-14-14-14-14|
E|-------------------------------------------------------------------|

e|-0--0--0--0--0--0--0--0--0--0--------------------------------------|
B|-0--0--0--0--0--0--0--0--0--0---16-16-16-16-16-16-16-16-16-16-16-16|
G|-16-16-16-16-16-16-16-16-16-16--x--x--x--x--x--x--x--x--x--x--x--x-|
D|-x--x--x--x--x--x--x--x--x--x---13-13-13-13-13-13-13-13-13-13-13-13|
A|-14-14-14-14-14-14-14-14-14-14-------------------------------------|
E|-------------------------------------------------------------------|

[Chorus]
Gtr I 
Use Digitech Whammy to get octave effect 
e|---------------------------------------------------|
B|---------------------------------------------------|
G|---------------------------------------------------|
D|-6^--9--------6^--9--------6^--9-------------------|
A|-------4-4-4--------6-6-6--------4-4-4--7-6-9-9-9--|
E|---------------------------------------------------|

e|------------------------------------------------------------------------------------|
B|-----------12h14-----------------17----------------14----------------14-16----------|
G|-9h11-9-9--------13-13--13h14p13----14-13-------16----16-16--16-16---------14-13-11-|
D|------------------------------------------16-14-------------------------------------|
A|------------------------------------------------------------------------------------|
E|------------------------------------------------------------------------------------|

Gtr II do Chorus

[Outro]
Gtr I
e|---------------------------------------------------------------------------|
B|---------------------------------------------------------------------------|
G|--------------------------------------9--9--9--9--9-9-9--9-9-9-9--8-8-8----|
D|-2--2--2--2--2-2-2--2-2-2--2--6-6-6---x--x--x--x--x-x-x--x-x-x-x--x-x-x----|
A|-2--2--2--2--2-2-2--2-2-2--2--6-6-6---7--7--7--7--7-7-7--7-7-7-7--6-6-6----|
E|-0--0--0--0--0-0-0--0-0-0--0--4-4-4---9--9--9--9--9-9-9--9-9-9-9-----------|

e|-----------------------------------------------------------------------------------|
B|-12-12-12--12--12-12-12--12-12-12--12--10-10-10------------------------------------|
G|-11-11-11--11--11-11-11--11-11-11--11--11-11-11---9-9-9-9---9-9-9--9-9-9-9--8-8-8--|
D|-9--9--9---9---9--9--9---9--9--9---9---9--9--9----x-x-x-x---x-x-x--x-x-x-x--x-x-x--|
A|--------------------------------------------------7-7-7-7---7-7-7--7-7-7-7--6-6-6--|
E|--------------------------------------------------9-9-9-9---9-9-9--9-9-9-9---------|

Gtr II
e|----------------------------------------------|-----------------------------------------------|
B|----------------------------------------------|-----------------------------------------------|
G|-11-11-11--11-11--13-9--11-11-11--11-11--13-9-|-13-13-13--13-13--13-13--13-13-13-13--11-11-11-| 
D|-x--x--x---x--x---x--x--x--x--x---x--x---x--x-|-x--x--x---x--x---x--x---x--x--x--x---x--x--x--|
A|-9--9--9---9--9---11-7--9--9--9---9--9---11-7-|-11-11-11--11-11--11-11--11-11-11-11--9--9--9--|
D|----------------------------------------------|-----------------------------------------------| 

e|----------------------------------------------|-----------------------------------------------|
B|----------------------------------------------|-----------------------------------------------|
G|-11-11-11--11-11--13-9--11-11-11--11-11--13-9-|-13-13-13--13-13--13-13--13-13-13-13-16-16-16--| 
D|-x--x--x---x--x---x--x--x--x--x---x--x---x--x-|-x--x--x---x--x---x--x---x--x--x--x--x--x--x---|
A|-9--9--9---9--9---11-7--9--9--9---9--9---11-7-|-11-11-11--11-11--11-11--11-11-11-11-14-14-14--|
D|----------------------------------------------|-----------------------------------------------|
Suggest correction
Creating personal tab
Creating personal tab
You can edit any tab online and save it as your Personal.

You can edit, replace or remove any tab part or add personal notes – all changes will be seen only by you.

Personal tabs can be accessed anytime from any device, even offline.
Learn more »
Give kudos to tab author, rate the tab!
1 2 3 4 5
comments
print report bad tab
guest
You may want to rate the tab now too:
select rating
Wanna post a correction for this tab? Suggest correction