Oops, an error
Loading. Please wait.

Fences bass

version 4
version 4

Whole song

Interactive

1,178 views 1 this week
no commentswrite comment
1 2 3 4 5
x 4
add to favorites
×
Save as Personal and add changes to this tab that will be seen only by you. Learn more ›
×
You can save this tab as Personal to edit and correct it or add notes. All changes will be seen only by you. Learn more »
launch autoscroll
font size
0
reset
guitar tuner
edit
Autoscroll
slow
fast
+/-
esc
set tempo
stop
F#|---------------------------------------------------------|
C#|----0--1--1h3p1-----0--1--1h3p1-----3--1--0-----3--5-----|
G#|-3---------------3---------------------------------------|
C#|---------------------------------5-----------5--------5--|

F#|------------------------------------------------------|
C#|----0--1--1h3-----0--1--1h3-----3--1--0--1--3--1-0----|
G#|-3-------------3-----------------------------------1--|
C#|-----------------------------5------------------------|

0:09
F#|-----------------------------------------------------|
C#|----0--1--3p1-----0--1--3p1-----3--1--0--3--5--3--1--|
G#|-3-------------3-------------------------------------|
C#|-----------------------------5-----------------------|

F#|-----------------------------------------------------|
C#|----0--1--1h3-----0--1--1h3-----3--1--0--3--5--3--1--|
G#|-3-------------3-------------------------------------|
C#|-----------------------------5-----------------------|

0:18
F#|------------------------------------------|
C#|-------------------3---3------------------|
G#|---------------------------1--1--1--1--1--|
C#|-3--3--3--3--3--3---3---3-----------------|

F#|--------------------------------------------------------|
C#|----0--1--1h3-----0--1--1h3p1-----3--1--0--3--5--3-1-0--|
G#|-3-------------3----------------------------------------|
C#|-------------------------------5------------------------|

0:28
F#|-------------------------------------------------------------------------|
C#|-------------------------------------------------------------------------|
G#|-------------------------------------1-----------------------------1-----|
C#|-3-----------------------1-----------------------3-----5-----6-----------|

F#|----------------------|
C#|----------------------|
G#|-------1--------------|
C#|-1-----------5555555--|

0:37
F#|-------------------------------------------------|
C#|-------------------------------------------------|
G#|-3-----------------------------------------------|
C#|-------------------------6-----------3-----5-----|

F#|-------------------------------------------------|
C#|-------------------------------------------------|
G#|-------------------------------------------------|
C#|-10-\--\--\--\-----------6-----------3-----5-----|

0:47
F#|----------------------------------------------------------------------------------|
C#|----------5--6-----6--------------------------------5--6--------------------------|
G#|----5--6--------6---6-------------------------5--6--------6-----6--1--1-----1--2--|
C#|-6---------------------3----3----3----3----6-----------------6-----------3--------|

F#|---------------------------------------------------------|
C#|----0--1--1h3p1-----0--1--1h3p1-----3--1--0-----3--5-----|
G#|-3---------------3---------------------------------------|
C#|---------------------------------5-----------5--------5--|

F#|------------------------------------------------------|
C#|----0--1--1h3-----0--1--1h3-----3--1--0--1--3--1-0----|
G#|-3-------------3-----------------------------------1--|
C#|-----------------------------5------------------------|
                                                                    
1:05
F#|-----------------------------------------------------|
C#|----0--1--3p1-----0--1--3p1-----3--1--0--3--5--3--1--|
G#|-3-------------3-------------------------------------|
C#|-----------------------------5-----------------------|

F#|-----------------------------------------------------|
C#|----0--1--1h3-----0--1--1h3-----3--1--0--3--5--3--1--|
G#|-3-------------3-------------------------------------|
C#|-----------------------------5-----------------------|

F#|------------------------------------------|
C#|-------------------3---3------------------|
G#|---------------------------1--1--1--1--1--|
C#|-3--3--3--3--3--3---3---3-----------------|

1:19
F#|-------------------------------------------------------------------------|
C#|-------------------------------------------------------------------------|
G#|-------------------------------------1-----------------------------1-----|
C#|-3-----------------------1-----------------------3-----5-----6-----------|

F#|----------------------|
C#|----------------------|
G#|-------1--------------|
C#|-1-----------5555555--|

1:29
F#|-------------------------------------------------|
C#|-------------------------------------------------|
G#|-3-----------------------------------------------|
C#|-------------------------6-----------3-----5-----|

F#|-------------------------------------------------|
C#|-------------------------------------------------|
G#|-------------------------------------------------|
C#|-10-\--\--\--\-----------6-----------3-----5-----|

1:39
F#|-------------------------------------------------------------------------------------------|
C#|----------5--6-----6--------------------------------5--6-----------------------------1-----|
G#|----5--6--------6---6-------------------------5--6--------6-----6--1--1-----1--2--2----2-2-|
C#|-6---------------------3----3----3----3----6-----------------6-----------3-----------------|

1:48
F#|--------------------------------------------------------------|
C#|o------------------------------------------------------------o|
G#|o---------------------------------6--6-----------1--1--------o|
C#|--3--3------------6--6----------------------------------------|

2:07
F#|----------------------------------------------------------------------------|
C#|----------------------------------------------------------------------------|
G#|-3--3--3--33--2--2--2---2---1--1--1-3-1--0--0--0--0-------------------------|
C#|---------------------3---3---------------------------6--6--6--6--6--6--6-8--|

2:14
F#|--------------------------------------------------------------------------|
C#|--------------------------------------------------------------------------|
G#|-3--3--3---3---2--2-----0--1--1--1--1--0--0--0--0-------------------------|
C#|--------3---3--------5-----------------------------6--6--6--6--6--6--6-8--|

2:22
F#|-----------------------------------------------|
C#|o----0--1--3--5--6--5---------1--3------------o|
G#|o-3--------------------6---3------------------o|
C#|------------------------5---------3-----5------|

F#|-------------------------------------------------------------|
C#|-------------------------------------------------------------|
G#|---------------------------------6--6-----------1--1---------|
C#|-3--3------------6--6----------------------------------------|

2:41
F#|-------------------------------------------------|
C#|-------------------------------------------------|
G#|-3-----------------------------------------------|
C#|-------------------------6-----------3-----5-----|

F#|-------------------------------------------------|
C#|-------------------------------------------------|
G#|-------------------------------------------------|
C#|-10-\--\--\--\-----------6-----------3-----5-----|

2:50
F#|-------------------------------------------------------------------------------------|
C#|----------5--6-----6--------------------------------5--6-----6-----------------------|
G#|----5--6--------6---6-------------------------5--6--------6---6----------------------|
C#|-6---------------------3----3----3----3----6---------------------3----3----3----3----|

F#|------------------------------------------|
C#|----------5--6----------------------------|
G#|----5--6--------6-----6--1--1-----1--2----|
C#|-6-----------------6-----------3----------|

3:04
F#|---------------------------------------------------------|
C#|----0--1--1h3p1-----0--1--1h3p1-----3--1--0-----3--5-----|
G#|-3---------------3---------------------------------------|
C#|---------------------------------5-----------5--------5--|

F#|-----------------------------------------------------|
C#|----0--1--1h3-----0--1--1h3-----3--1--0--1--3--5--5--|
G#|-3-------------3-------------------------------------|
C#|-----------------------------5-----------------------|
Tabbed by Dave Vucko
Suggest correction
Creating personal tab
Creating personal tab
You can edit any tab online and save it as your Personal.

You can edit, replace or remove any tab part or add personal notes – all changes will be seen only by you.

Personal tabs can be accessed anytime from any device, even offline.
Learn more »
comments
print report bad tab
guest
You may want to rate the tab now too:
select rating
Wanna post a correction for this tab? Suggest correction