Oops, an error
Loading. Please wait.
We have an official For A Pessimist Im Pretty Optimistic tab made by UG professional guitarists. Check out the tab »
×
8,901 views 3 this week
2 commentsread comments
1 2 3 4 5
2 more votes to show rating
add to favorites
×
Save as Personal and add changes to this tab that will be seen only by you. Learn more ›
×
You can save this tab as Personal to edit and correct it or add notes. All changes will be seen only by you. Learn more »
launch autoscroll
font size
0
reset
guitar tuner
backing track
0:00
0:00
edit
Autoscroll
slow
fast
+/-
esc
set tempo
stop
	For a Pessimist, I'm Pretty Optimistic - Paramore


Tabbed By : dvanwyk
e-mail: dustinvanwyk@yahoo.com
Tuning:Drop-D

 Intro x2
G|---------------------------------------------------------|
D|---------------------------------------------------------|
A|---------------------------------------------------------|
D|9(x8)-4(x8)-4(x8)-3(x8)--9(x8)-4(x8)-11(x8)-13-13-15-15--|
 Verse
G|-------------------------------------------------------------------------|
D|-------------------------------------------------------------------------|
A|---22222222-22222222----22222222-22222222--------------------------------|
D|4~-------------------4~-------------------44-444-446-66-666-666-00~-22~--|
 Pre-Chorus x2
G|--------------------------------------------------------------------------------------|
D|--------------------------------------------------------------------------------------|
A|--------------------------------------------------------------------------------------|
D|6~-8~-9~-11~--------------------------------------------------------------------------|
 Chorus
G|---------------------------------------------------|
D|---------------------------------------------------|
A|---------------------------------------------------|
D|6(x8)-8(x8)-4(x8)--6(x8)-4(x8)-11(x8)-13-13-15-15--|
 Chorus End
G|--------------------|
D|--------------------|
A|--------------------|
D|6(x8)-11(x8)-4(x8)--|

Intro x1
G|---------------------------------------------------------|
D|---------------------------------------------------------|
A|---------------------------------------------------------|
D|9(x8)-4(x8)-4(x8)-3(x8)--9(x8)-4(x8)-11(x8)-13-13-15-15--|

 Verse
G|-------------------------------------------------------------------------|
D|-------------------------------------------------------------------------|
A|---22222222-22222222----22222222-22222222--------------------------------|
D|4~-------------------4~-------------------44-444-446-66-666-666-00~-22~--|

Pre-Chorus x2
G|--------------------------------------------------------------------------------------|
D|--------------------------------------------------------------------------------------|
A|--------------------------------------------------------------------------------------|
D|6~-8~-9~-11~--------------------------------------------------------------------------|

 Chorus
G|---------------------------------------------------|
D|---------------------------------------------------|
A|---------------------------------------------------|
D|6(x8)-8(x8)-4(x8)--6(x8)-4(x8)-11(x8)-13-13-15-15--|
 Chorus End
G|--------------------|
D|--------------------|
A|--------------------|
D|6(x8)-11(x8)-4(x8)--|

Intro x1
G|---------------------------------------------------------|
D|---------------------------------------------------------|
A|---------------------------------------------------------|
D|9(x8)-4(x8)-4(x8)-3(x8)--9(x8)-4(x8)-11(x8)-13-13-15-15--|

Bridge
G|-----------------------------------------------------|
D|-----------------------------------------------------|
A|------------2(x8)--------------------2(x8)-----------|
D|4(x8)-6(x8)-------1(x8)-223344444444-------1(x8)-4~--|

Intro x2
G|---------------------------------------------------------|
D|---------------------------------------------------------|
A|---------------------------------------------------------|
D|9(x8)-4(x8)-4(x8)-3(x8)--9(x8)-4(x8)-11(x8)-13-13-15-15--|

Chorus End
G|--------------------|
D|--------------------|
A|--------------------|
D|6(x8)-11(x8)-4(x8)--|

Chorus
G|---------------------------------------------------|
D|---------------------------------------------------|
A|---------------------------------------------------|
D|6(x8)-8(x8)-4(x8)--6(x8)-4(x8)-11(x8)-13-13-15-15--|

 End off
G|-------------------------------------------------------------------------------|
D|-------------------------------------------------------------------------------|
A|-------------------------------------------------------------------------------|
D|9~-----------------------------------------------------------------------------|


| /  slide up
| \  slide down
| h  hammer-on
| p  pull-off
| ~  vibrato
| +  harmonic
| x  Mute note
===============================================================================
Suggest correction
Creating personal tab
Creating personal tab
You can edit any tab online and save it as your Personal.

You can edit, replace or remove any tab part or add personal notes – all changes will be seen only by you.

Personal tabs can be accessed anytime from any device, even offline.
Learn more »
Give kudos to tab author, rate the tab!
1 2 3 4 5
comments
print report bad tab
2 comments total.
0 reply
v_vengeance6661 10 Jun 26, 2007 08:24 AM

Inaccurate and very wrong.

0 reply
random_iro 10 Mar 12, 2008 07:01 PM

Im sorry but thats pretty brutal

guest
You may want to rate the tab now too:
select rating
Wanna post a correction for this tab? Suggest correction