Oops, an error
Loading. Please wait.
We have an official For A Pessimist Im Pretty Optimistic tab made by UG professional guitarists. Check out the tab »
×
1,281 views 1 this week
6 commentsread comments
1 2 3 4 5
x 4
add to favorites
×
Save as Personal and add changes to this tab that will be seen only by you. Learn more ›
×
You can save this tab as Personal to edit and correct it or add notes. All changes will be seen only by you. Learn more »
launch autoscroll
font size
0
reset
guitar tuner
backing track
0:00
0:00
edit
Autoscroll
slow
fast
+/-
esc
set tempo
stop
Author
Difficulty
-------------------------------------------------------------------------------
              For A Pessimist, I'm Pretty Optimistic - Paramore
-------------------------------------------------------------------------------
Tabbed by: Chris Sangpil Lee
E-mail: jhsp77@hotmail.com

Tuning: Standard 5 String (BEADG)

Intro
|-------------------------------------------------|--------------------------------------------------|
|o------------------------------------------------|--------------------------------------------------|
|o2-----2--2-----2--------------------------------|--------------------------------------------------|
|-------------------2-----2--2-----2--2--2--2--2--|--------------------------------------------------|
|-------------------------------------------------|--4-----4--4-----4--2-----2--2-----2--2--2--2--2--|

--------------------------------------------------|--------------------------------------------------|
--------------------------------------------------|-------------------------------------------------o|
--2-----2--2-----2--------------------------------|--4--4--4--4--4--4--4--4--6--6--6--6--8--8--8--8-o|
--------------------2-----2--2-----2--2--2--2--2--|--------------------------------------------------|
--------------------------------------------------|--------------------------------------------------|

Verse 1
|-------------------------------------------------|--------------------------------------------------|
|o------------------------------------------------|--------------------------------------------------|
|o------------------------------------------------|--------------------------------------------------|
|-2L----------------------------------------------|--2-----------------------------------------------|
|-------------------------------------------------|--------------------------------------------------|

--------------------------------------------------|--------------------------------------------------|
--------------------------------------------------|-------------------------------------------------o|
--2--2--2--2--2--2--2--2--2--2--2--2--2--2--2--2--|--2--2--2--2--2--2--2--2--2--2--2--2--2--2--2--2-o|
--------------------------------------------------|--------------------------------------------------|
--------------------------------------------------|--------------------------------------------------|

--------------------------------------------------|--------------------------------------------------|
--------------------------------------------------|--------------------------------------------------|
--------------------------------------------------|--------------------------------------------------|
--2--2-----2--2--2-----2--2--2-----2--2--2-----2--|--4--4-----4--4--4-----4--4--4-----4--4--4--------|
--------------------------------------------------|-----------------------------------------------4L-|

--------------------------------------------------|--------------------------------------------------|
--------------------------------------------------|--------------------------------------------------|
--------------------------------------------------|--------------------------------------------------|
--------------------------------------8s----------|--------------------------------------------------|
--4-----4--------------------------------------2L-|--2--2L-2-----------------------------------------|

--------------------------------------------------|--------------------------------------------------|
--------------------------------------------------|--------------------------------------------------|
--------------------------------------------------|--------------------------------------------------|
--4--------4L-4--------4--6--------6L-6--------6--|--7--------7L-7--------7--9-----------------------|
--------------------------------------------------|--------------------------------------------------|

--------------------------------------------------|-------------------------------------|------------|
--------------------------------------------------|-------------------------------------|------------|
--------------------------------------------------|-------------------------------------|------------|
--------------------------------------------------|--2---------------2------4L----------|--4---------|
--4---------------4-------6---------------6-------|-------------------------------------|------------|

Chorus
--------------------------------------------------|--------------------------------------------------|
--------------------------------------------------|--------------------------------------------------|
--2-----2-----2--2--2-----4-----4-----4--4--4-----|--------------------------------------------------|
--------------------------------------------------|--------------------------------------------------|
--------------------------------------------------|--4-----4-----4--4--4-----4-----4-----4--4--4-----|

--------------------------------------------------|--------------------------------------------------|
--------------------------------------------------|--------------------------------------------------|
--2-----2-----2--2--2-----------------------------|--4-----4-----4--4--4-----4-----4-----4--4--4-----|
--------------------------2-----2-----2--2--2-----|--------------------------------------------------|
--------------------------------------------------|--------------------------------------------------|

--------------------------------------------------|--------------------------------------------------|
--------------------------------------------------|--------------------------------------------------|
--2-----2-----2--2--2-----4-----4-----4--4--4-----|--------------------------------------------------|
--------------------------------------------------|--------------------------------------------------|
--------------------------------------------------|--4-----4-----4--4--4-----4-----4-----4--4--4-----|

--------------------------------------------------|--------------------------------------------------|
--------------------------------------------------|--------------------------------------------------|
--2-----2-----2--2--2-----4-----4-----4--4--4-----|--------------------------4--------4--------4-----|
--------------------------------------------------|--2-----2-----2--2--2-----------------------------|
--------------------------------------------------|--------------------------------------------------|

Post-Chorus
--------------------------------------------------|--------------------------------------------------|
--------------------------------------------------|--------------------------------------------------|
--2-----2--2-----2--------------------------------|--------------------------------------------------|
--------------------2-----2--2-----2--2--2--2--2--|--------------------------------------------------|
--------------------------------------------------|--4-----4--4-----4--2-----2--2-----2--2--2--2--2--|

--------------------------------------------------|--------------------------------------------------|
--------------------------------------------------|--------------------------------------------------|
--2-----2--2-----2--------------------------------|--4--4--4--4--4--4--4--4--6--6--6--6--8--8--8--8--|
--------------------2-----2--2-----2--2--2--2--2--|--------------------------------------------------|
--------------------------------------------------|--------------------------------------------------|

Verse 2
|-------------------------------------------------|--------------------------------------------------|
|o------------------------------------------------|--------------------------------------------------|
|o------------------------------------------------|--------------------------------------------------|
|-2L----------------------------------------------|--2-----------------------------------------------|
|-------------------------------------------------|--------------------------------------------------|

--------------------------------------------------|--------------------------------------------------|
--------------------------------------------------|-------------------------------------------------o|
--2--2--2--2--2--2--2--2--2--2--2--2--2--2--2--2--|--2--2--2--2--2--2--2--2--2--2--2--2--2--2--2--2-o|
--------------------------------------------------|--------------------------------------------------|
--------------------------------------------------|--------------------------------------------------|

--------------------------------------------------|--------------------------------------------------|
--------------------------------------------------|--------------------------------------------------|
--------------------------------------------------|--------------------------------------------------|
--2--2-----2--2--2-----2--2--2-----2--2--2-----2--|--4--4-----4--4--4-----4--4--4-----4--4--4--------|
--------------------------------------------------|-----------------------------------------------4L-|

--------------------------------------------------|--------------------------------------------------|
--------------------------------------------------|--------------------------------------------------|
--------------------------------------------------|--------------------------------------------------|
--------------------------------------8s----------|--------------------------------------------------|
--4-----4--------------------------------------2L-|--2--2L-2-----------------------------------------|

--------------------------------------------------|--------------------------------------------------|
--------------------------------------------------|--------------------------------------------------|
--------------------------------------------------|--------------------------------------------------|
--4L----------------4--4--6L----------------6--6--|--7L----------------7--7--9-----------------------|
--------------------------------------------------|--------------------------------------------------|

--------------------------------------------------|--------------------------------------------------|
--------------------------------------------------|--------------------------------------------------|
--------------------------------------------------|--------------------------------------------------|
--------------------------------------------------|--2--2--2--2--2--2--2--2--4-----------------------|
--4--4--4--4--4--4--4--4--6--6--6--6--6--6--6--6--|--------------------------------------------------|

Chorus
--------------------------------------------------|--------------------------------------------------|
--------------------------------------------------|--------------------------------------------------|
--2-----2-----2--2--2-----4-----4-----4--4--4-----|--------------------------------------------------|
--------------------------------------------------|--------------------------------------------------|
--------------------------------------------------|--4-----4-----4--4--4-----4-----4-----4--4--4-----|

--------------------------------------------------|--------------------------------------------------|
--------------------------------------------------|--------------------------------------------------|
--2-----2-----2--2--2-----------------------------|--4-----4-----4--4--4-----6--6--6--6--8--8--8--8--|
--------------------------2-----2-----2--2--2-----|--------------------------------------------------|
--------------------------------------------------|--------------------------------------------------|

--------------------------------------------------|--------------------------------------------------|
--------------------------------------------------|--------------------------------------------------|
--2-----2-----2--2--2-----4-----4-----4--4--4-----|--------------------------------------------------|
--------------------------------------------------|--------------------------------------------------|
--------------------------------------------------|--4-----4-----4--4--4-----4-----4-----4--4--4-----|

--------------------------------------------------|--------------------------------------------------|
--------------------------------------------------|--------------------------------------------------|
--2-----2-----2--2--2-----4-----4-----4--4--4-----|--------------------------4--------4--------4-----|
--------------------------------------------------|--2-----2-----2--2--2-----------------------------|
--------------------------------------------------|--------------------------------------------------|

Post-Chorus
--------------------------------------------------|--------------------------------------------------|
--------------------------------------------------|--------------------------------------------------|
--2-----2--2-----2--------------------------------|--------------------------------------------------|
--------------------2-----2--2-----2--2--2--2--2--|--------------------------------------------------|
--------------------------------------------------|--4-----4--4-----4--2-----2--2-----2--2--2--2--2--|

--------------------------------------------------|--------------------------------------------------|
--------------------------------------------------|--------------------------------------------------|
--2-----2--2-----2--------------------------------|--4-----4--4-----4--4-----4--4-----4--4--4--4--4--|
--------------------2-----2--2-----2--2--2--2--2--|--------------------------------------------------|
--------------------------------------------------|--------------------------------------------------|

Bridge
--------------------------------------------------|--4--4--4--4--3--3--3--3--------------------------|
--------------------------3--3--3--3--4--4--4--4--|--------------------------6--6--6--6--3--3--3--3--|
--6--6--6--6--6--6--6--6--------------------------|--------------------------------------------------|
--------------------------------------------------|--------------------------------------------------|
--------------------------------------------------|--------------------------------------------------|

--------------------------------------------------|--4--4--4--4--3--3--3--3--------------------------|
--------------------------3--3--3--3--4--4--4--4--|--------------------------6--6--6--6--3--3--3--3--|
--5--5--5--5--6--6--6--6--------------------------|--------------------------------------------------|
--------------------------------------------------|--------------------------------------------------|
--------------------------------------------------|--------------------------------------------------|

----------------|----------------|----------------|----------------|-------|-------|
----------------|----------------|----------------|----------------|-------|-------|
----------------|--2--1----------|----------------|--2--1----------|-------|-------|
--------1--2----|--------4--1----|--------1--2----|--------4--1----|--2L---|--2----|
--3--4----------|----------------|--3--4----------|----------------|-------|-------|

Post-Bridge
--------------------------------------------------|--------------------------------------------------|
--------------------------------------------------|--------------------------------------------------|
--2-----2--2-----2--------------------------------|--------------------------------------------------|
--------------------2-----2--2-----2--2--2--2--2--|--------------------------------------------------|
--------------------------------------------------|--4-----4--4-----4--2-----2--2-----2--2--2--2--2--|

--------------------------------------------------|--------------------------------------------------|
--------------------------------------------------|--------------------------------------------------|
--2-----2--2-----2--------------------------------|--4-----4--4-----4--4-----4--4-----4--4--4--4--4--|
--------------------2-----2--2-----2--2--2--2--2--|--------------------------------------------------|
--------------------------------------------------|--------------------------------------------------|

Outro
--------------------------------------------------|--------------------------------------------------|
--------------------------------------------------|--------------------------------------------------|
--2-----2-----2--2--2-----4-----4-----4--4--4-----|--------------------------------------------------|
--------------------------------------------------|--------------------------------------------------|
--------------------------------------------------|--4-----4-----4--4--4-----4-----4-----4--4--4-----|

--------------------------------------------------|--------------------------------------------------|
--------------------------------------------------|--------------------------------------------------|
--2-----2-----2--2--2-----4-----4-----4--4--4-----|--------------------------------------------------|
--------------------------------------------------|--2-----2-----2--2--2-----2-----2-----2--2--2-----|
--------------------------------------------------|--------------------------------------------------|

--------------------------------------------------|--------------------------------------------------|
--------------------------------------------------|--------------------------------------------------|
--2-----2-----2--2--2-----4-----4-----4--4--4-----|--------------------------------------------------|
--------------------------------------------------|--------------------------------------------------|
--------------------------------------------------|--4-----4-----4--4--4-----4-----4-----4--4--4-----|

--------------------------------------------------|--------------------------------------------------|
--------------------------------------------------|--------------------------------------------------|
--2-----2-----2--2--2-----------------------------|--4-----4-----4--4--4-----6--6--6--6--8--8--8--8--|
--------------------------2-----2-----2--2--2-----|--------------------------------------------------|
--------------------------------------------------|--------------------------------------------------|

--------------------------------------------------|--------------------------------------------------|
--------------------------------------------------|--------------------------------------------------|
--2-----2-----2-----2-----4-----4-----4-----4-----|--------------------------------------------------|
--------------------------------------------------|--------------------------------------------------|
--------------------------------------------------|--4-----4-----4-----4-----4-----4-----4-----4-----|

--------------------------------------------------|--------------------------------------------------|
--------------------------------------------------|--------------------------------------------------|
--2-----2-----2-----2-----4-----4-----4-----4-----|--------------------------------------------------|
--------------------------------------------------|--2-----2-----2-----2-----2-----2-----2-----2-----|
--------------------------------------------------|--------------------------------------------------|

-------|-------|-------|-------|-------|-------||
-------|-------|-------|-------|-------|-------||
-------|-------|-------|-------|-------|-------||
-------|-------|-------|-------|-------|-------||
--4----|--2L---|--2L---|--2L---|--2L---|--2----||



| /  slide up
| \  slide down
| h  hammer-on
| p  pull-off
| l  tie note
| ~  vibrato
| +  harmonic
| x  Mute note
===============================================================================

            
            
Suggest correction
Creating personal tab
Creating personal tab
You can edit any tab online and save it as your Personal.

You can edit, replace or remove any tab part or add personal notes – all changes will be seen only by you.

Personal tabs can be accessed anytime from any device, even offline.
Learn more »
comments
print report bad tab
6 comments total. Showing first comments.
0 reply
jhsp77 52 Aug 26, 2013 07:42 AM

please refer to my cover video on youtube.
http://www.youtube.com/watch?v=J7MzNQCFc7A

0 reply
Haloquadratum 110 Aug 26, 2013 10:04 AM

why did you leave so much space between the numbers? you could've tabbed this on way less space, making it easier to read.

0 reply
jhsp77 52 Sep 13, 2013 09:40 PM

GPX(Bass only) download: http://blogattach.naver.net/e174fd475a6a6bdbf41a73407691e3993869941c/20130810_209_blogfile/speciallemon_1376145472985_9sirDu_gpx/Paramore+-+For+A+Pessimist%2C+I%27m+Pretty+Optimistic.gpx?type=attachment

GP5(Bass only) download:
http://blogattach.naver.net/3bae279482dfdf032acea198a74a3140e3b04dac06/20130810_158_blogfile/speciallemon_1376145483751_TDBkH3_gp5/Paramore+-+For+A+Pessimist%2C+I%27m+Pretty+Optimistic.gp5?type=attachment

PDF(Bass only) download:
http://blogattach.naver.net/188d04b7a2f9fc2009ed82bb84691263c0936e8ffc/20130810_122_blogfile/speciallemon_1376145493132_5aUI6Q_pdf/Paramore+-+For+A+Pessimist%2C+I%27m+Pretty+Optimistic.pdf?type=attachment

guest
You may want to rate the tab now too:
select rating
Wanna post a correction for this tab? Suggest correction