Oops, an error
Loading. Please wait.

For A Pessimist Im Pretty Optimistic Tab

version 5
version 5
12,858 views 3 this week
2 commentsread comments
1 2 3 4 5
accurate
x 5
add to favorites
launch autoscroll
font size
0
reset
how to read this tab
guitar tuner
Autoscroll
slow
fast
+/-
esc
set tempo
stop
Help us to improve Ultimate-Guitar.com Take our survey!
×
Author
Paramore - For A Pessimist I'm Pretty Optimistic Guitar Tab
I'm Pretty Sure This Is 99.9% Correct
This Is For Lead Guitar Part
Drop D Tuning - DADGBE

I. Intro x2
e|-----------------------------------------|
B|--12-12-11-11--11-11---------------------|
G|---x--x--x--x---x--x-11-11-10-10--10-10--|
D|---9--9--8--8---8--8--x--x--x--x---x--x--|
A|----------------------9--9--8--8---8--8--|
D|-----------------------------------------|

e|-----------------------------------------|
B|--12-12-11-11--11-11-14-14-14-14--14-14--|
G|---x--x--x--x---x--x--x--x--x--x---x--x--|
D|---9--9--8--8---8--8-11-11-11-11--11-11--|
A|-----------------------------------------|
D|-----------------------------------------|

II. Verse
e|-----------------------------------------| x2
B|-----------------------------------------|
G|------------4-4--4-4-4--4-4-4--4-4-4--4--|
D|--4~~~~-----4-4--4-4-4--4-4-4--4-4-4--4--|
A|--4~~~~-----2-2--2-2-2--2-2-2--2-2-2--2--|
D|--4~~~~----------------------------------|

e|--------------------------------------------------------|
B|--------------------------------------------------------|
G|--------------------------------------------------------|
D|--4-4--4-4-4--4-4-4--4-4-4--4-6-6--6-6-6--6-6-6--6-6-6--|
A|--4-4--4-4-4--4-4-4--4-4-4--4-6-6--6-6-6--6-6-6--6-6-6--|
D|--4-4--4-4-4--4-4-4--4-4-4--4-6-6--6-6-6--6-6-6--6-6-6--|

e|-----------------------------------------|
B|------------------11111111---------------|
G|----------8-8-8-8--x-x-x-x-6---6~~~------|
D|--1---1---x-x-x-x--8-8-8-8-6---6~~~------|
A|--1---1---6-6-6-6----------4---4~~~------|
D|--1---1----------------------------------|

III. Pre Chorus x2
e|-----------------------------------------|
B|-----------------------------------------|
G|-----------------------------------------|
D|-----------------------------------------|
A|--------------------2~~~~----4~~~~-------|
D|--4~~~~----6~~~~-------------------------|

IV. Chorus
e|-----------------------------------------------|
B|-----------------------------------------------|
G|--8-8-8-8-10-10-10-10-11-11-11-11-11-11-11-11--|
D|--8-8-8-8-11-11-11-11-11-11-11-11-11-11-11-11--|
A|--6-6-6-6--8-8-8-8--8--9--9--9--9--9--9--9--9--|
D|-----------------------------------------------|

e|---------------------------------------|
B|---------------------------------------|
G|--8-8-8-8-10-10-10-10-6-6-6-6-6-6-6-6--|
D|--8-8-8-8-11-11-11-11-6-6-6-6-6-6-6-6--|
A|--6-6-6-6--8--8--8--8-4-4-4-4-4-4-4-4--|
D|---------------------------------------|

e|-----------------------------------------------|
B|-----------------------------------------------|
G|--8-8-8-8-10-10-10-10-11-11-11-11-11-11-11-11--|
D|--8-8-8-8-11-11-11-11-11-11-11-11-11-11-11-11--|
A|--6-6-6-6--8-8-8-8--8--9--9--9--9--9--9--9--9--|
D|-----------------------------------------------|

e|-----------------------------------------------|
B|-----------------------------------------------|
G|--8-8-8-8-13-13-13-13-11-11-11-11-11-11-11-11--|
D|--8-8-8-8-13-13-13-13-11-11-11-11-11-11-11-11--|
A|--6-6-6-6-11-11-11-11--9--9--9--9--9--9--9--9--|
D|-----------------------------------------------|

e|-----------------|
B|-----------------|
G|--6~--6~--6~~----|
D|--6~--6~--6~~----|
A|--4~--4~--4~~----|
D|-----------------|

V. Repeat Intro

VI. Repeat Verse

VII. Repeat Pre Chorus x2

VIII. Repeat Chorus

IX. Repeat Intro

X. Bridge x2
e|-----------------------------------|
B|-----------------------------------|
G|-----------------------------------|
D|-----------------------------------|
A|------------------2-2-1-1-0-0------|
D|--1-1-1-1-3-3-3-3-------------4-4--|

XI. Solo x2
e|----------------------------------------------------------|-------|
B|--6h8p7p6h8p7p6h8p7p6h8p7h8~--6h8p7p6h8p7p6h8p7p6h8p7p6~--|-------|
G|----------------------------------------------------------|-------|
D|----------------------------------------------------------|--4~~--|
A|----------------------------------------------------------|--4~~--|
D|----------------------------------------------------------|--4~~--|

XII. Out Chorus
e|-----------------------------------------|
B|--12-12-11-11--11-11---------------------|
G|---x--x--x--x---x--x-11-11-10-10--10-10--|
D|---9--9--8--8---8--8--x--x--x--x---x--x--|
A|----------------------9--9--8--8---8--8--|
D|-----------------------------------------|

e|-----------------------------------------|
B|--12-12-11-11--11-11-14-14-14-14--14-14--|
G|---x--x--x--x---x--x--x--x--x--x---x--x--|
D|---9--9--8--8---8--8-11-11-11-11--11-11--|
A|-----------------------------------------|
D|-----------------------------------------|
 
e|-----------------------------------------------|
B|-----------------------------------------------|
G|--8-8-8-8-10-10-10-10-11-11-11-11-11-11-11-11--|
D|--8-8-8-8-11-11-11-11-11-11-11-11-11-11-11-11--|
A|--6-6-6-6--8-8-8-8--8--9--9--9--9--9--9--9--9--|
D|-----------------------------------------------|

e|-----------------------------------------------|
B|-----------------------------------------------|
G|--8-8-8-8-13-13-13-13-11-11-11-11-11-11-11-11--|
D|--8-8-8-8-13-13-13-13-11-11-11-11-11-11-11-11--|
A|--6-6-6-6-11-11-11-11--9--9--9--9--9--9--9--9--|
D|-----------------------------------------------|

e|-----------------------------------------------|
B|-----------------------------------------------|
G|--8-8-8-8-10-10-10-10-11-11-11-11-11-11-11-11--|
D|--8-8-8-8-11-11-11-11-11-11-11-11-11-11-11-11--|
A|--6-6-6-6--8-8-8-8--8--9--9--9--9--9--9--9--9--|
D|-----------------------------------------------|

e|-----------------------------------------------|
B|----------11-11-11-11-14-14-14-14-14-14-14-14--|
G|--8-8-8-8--x--x--x--x--x--x--x--x--x--x--x--x--|
D|--8-8-8-8--8--8--8--8-11-11-11-11-11-11-11-11--|
A|--6-6-6-6--------------------------------------|
D|-----------------------------------------------|

e|-----------------------------------------------|
B|-----------------------------------------------|
G|--8-8-8-8-10-10-10-10-11-11-11-11-11-11-11-11--|
D|--8-8-8-8-11-11-11-11-11-11-11-11-11-11-11-11--|
A|--6-6-6-6--8-8-8-8--8--9--9--9--9--9--9--9--9--|
D|-----------------------------------------------|

e|-----------------------------------------------|
B|-----------------------------------------------|
G|--8-8-8-8-13-13-13-13-11-11-11-11-11-11-11-11--|
D|--8-8-8-8-13-13-13-13-11-11-11-11-11-11-11-11--|
A|--6-6-6-6-11-11-11-11--9--9--9--9--9--9--9--9--|
D|-----------------------------------------------|

e|-------------------|
B|-------------------|
G|--8~~~---10~~~-----|
D|--8~~~---11~~~-----|
A|--6~~~----8~~~-----|
D|-------------------|
Suggest correction
comments
print report bad tab
2 comments total.
0 reply
MusicMan24 1,114 wrote on June 19 2010, 10:36 pm

This ain't right, the tuning is Drop C#, and the chords for the intro are these:


eb|-----------------------|
Bb|-----------------------|
Gb|17-16--12-11--17-16-19-|
Db|-x--x---x-x----x--x--x-|
Ab|15-14--10-9---15-14-17-|
Db|-----------------------|


There's a certain strum pattern I use, I just don't feel like tabbing it out.

0 reply
Danowa 515 wrote on August 16 2010, 07:49 pm

The intro is not right, it's: e|------------------------------------------------|
B|------------------------------------------------|
G|--16--16--16--16--16--16--15--15--15--15--15--15|
D|---x---x---x---x---x---x---x---x---x---x---x---x|
A|--14--14--14--14--14--14--13--13--13--13--13--13|
D|------------------------------------------------|

e|------------------------------------------------|
B|------------------------------------------------|
G|--11--11--11--11--11--11--10--10--10--10--10--10|
D|---x---x---x---x---x---x---x---x---x---x---x---x|
A|---9---9---9---9---9---9---8---8---8---8---8---8|
D|------------------------------------------------|

e|------------------------------------------------|
B|------------------------------------------------|
G|--16--16--16--16--16--16--15--15--15--15--15--15|
D|---x---x---x---x---x---x---x---x---x---x---x---x|
A|--14--14--14--14--14--14--13--13--13--13--13--13|
D|------------------------------------------------|

e|------------------------------------------------|
B|------------------------------------------------|
G|--18--18--18--18--18--18--18--18--18--18--18--18|
D|---x---x---x---x---x---x---x---x---x---x---x---x|
A|--16--16--16--16--16--16--16--16--16--16--16--16|
D|------------------------------------------------|

guest
You may want to rate the tab now too:
select rating
Please do not post tabs as comments. Select "correction" instead!