Oops, an error
Loading. Please wait.

Franklin tab

version 2
version 2

Whole song

Interactive

2,494 views 1 this week
no commentswrite comment
1 2 3 4 5
1 last vote to show rating
add to favorites
×
Save as Personal and add changes to this tab that will be seen only by you. Learn more ›
×
You can save this tab as Personal to edit and correct it or add notes. All changes will be seen only by you. Learn more »
launch autoscroll
font size
0
reset
how to read this tab
guitar tuner
edit
Autoscroll
slow
fast
+/-
esc
set tempo
stop
I tabbed this out by watching and listening to a cover on youtube
This would sound great with two guitarists, the other playing gdsum41fan's tabbed 
Hope you like it!


e-15-----15-----15-----15-----------12---|
B---12-13--12-13--12-13--12-13-13-15--15-|
G----------------------------------------|  x4
D----------------------------------------|
A----------------------------------------|
E----------------------------------------|

        v1: and when we get home, I know we won't be home at all
            this place we live, it is not where we belong
            and I miss who we were, in a town that we could call our own
            going back to get away, after everything has...

e------------------------------------|
B------------------------------------|
G-9-12--9--9-12--------12-9-----12-9-|
D----------------12-10-------10------|
A------------------------------------|
E------------------------------------|
chorus:...chaaaanged, everything has...
 could you remind me of a time when we were so alive?
 could you help me push aside all that I've left behind?
e-------------------------------------|
B-------------------------------------|
G-9-12--9--9-12--------12-12-12--10-9-|  x2
D----------------12-10----------------|
A-------------------------------------|
E-------------------------------------|
 ...chaaaanged, everything has chaaaanged
 do you remember that? do you remember that?

e-12----12----12----12----------9---|
B---9-10--9-10--9-10--9-10-10-12-12-|
G-----------------------------------|  x5
D-----------------------------------|
A-----------------------------------|
E-----------------------------------|

        v2: so we stand here now, and no one knows us at all
            I won't get used to this, I won't get used to being gone
            and going back won't feel the same if we aren't staying
            going back to get away, after everything has...

e------------------------------------|
B------------------------------------|
G-9-12--9--9-12--------12-9-----12-9-|
D----------------12-10-------10------|
A------------------------------------|
E------------------------------------|
chorus:...chaaaanged, everything has...
 could you remind me of a time when we were so alive?
 could you help me push aside all that I've left behind?
e-------------------------------------|
B-------------------------------------|
G-9-12--9--9-12--------12-12-12--10-9-|  x2
D----------------12-10----------------|
A-------------------------------------|
E-------------------------------------|
 ...chaaaanged, everything has chaaaanged
 do you remember that? do you remember that?

e-0----0--------0--------0--------0---|
B--1----1------1-1------1-1------1-1--|
G---0-0--0----0---0----0---0----0---0-|
D----2-------2--------2--------2------|
A-----------3--------3--------3-------|
E-------------------------------------|

e-------------------------------------|
B-13------------------------------15--|
G-------------------------------------|
D-------------------------------------|
A-------------------------------------|
E-------------------------------------|
        taking up our tiiiiiime
e-------------------------------------------|
B-------------------------------------------|
G-12-------------------------------------9--|
D---------------------------------10-12--10-|
A-------------------------------------------|
E-------------------------------------------|
        taking up our tiiiiiime             taking up our

 (1-e-+-a-2-e-+-a-3-e-+-a-4------------|e-+-)
e--------------------------------------|
B-131313131313131313131313131313-------|
G-121212121212121212121212121212-------|
D--------------------------------------|
A--------------------------------------|
E--------------------------------------|
 tiiiiiiiiiiiiiiiiiiiiime


 (1-e-+-a-2-e-+-a-3-e-+-a-4-e-+-a-1-e-+-a-2-e-+-a-3-e-+-a-4-e-+-a-)
e-1515151515151515151515151515151515151515151512121313121213131212-
B-1717171717171717171717171717171717171717171713131515131315151313-
G------------------------------------------------------------------|  x4
D------------------------------------------------------------------|
A------------------------------------------------------------------|
E------------------------------------------------------------------|

         taking up our time, we can't go back, we can't go back at all x3
         taking up our tiiime, taking up our tiiime

e------------------------------------|
B------------------------------------|
G-9-12--9--9-12--------12-9-----12-9-|
D----------------12-10-------10------|
A------------------------------------|
E------------------------------------|
 cause you remind me of a time when we were so alive
e-------------------------------------|
B-------------------------------------|
G-9-12--9--9-12--------12-12-12--10-9-|  x2
D----------------12-10----------------|
A-------------------------------------|
E-------------------------------------|
 do you remember that? do you remember that?
e----
B-13-
G-12-
D-10-
A----
E----

            
            
Suggest correction
Creating personal tab
Creating personal tab
You can edit any tab online and save it as your Personal.

You can edit, replace or remove any tab part or add personal notes – all changes will be seen only by you.

Personal tabs can be accessed anytime from any device, even offline.
Learn more »
Give kudos to tab author, rate the tab!
1 2 3 4 5
comments
print report bad tab
guest
Wanna post a correction for this tab? Suggest correction