Oops, an error
Loading. Please wait.

Future Tab

version 1
version 1

Intro

Whole song

14,437 views 24 this week
5 commentsread comments
1 2 3 4 5
excellent!
x 31
add to favorites
launch autoscroll
font size
0
reset
how to read this tab
guitar tuner
Tab Pro tools
  • play this tab
  • loop segment
  • change instrument
  • show fretboard
  • metronome
×
Best way to learn
"Future"
Autoscroll
slow
fast
+/-
esc
set tempo
stop
Contributor
Hey guys! This is Future by Paramore off of their Self Titled Album PARAMORE :D

This is just the intro, but the chords will be up soon! 



Intro: 
e|------------------|------------------|------------------|------------------|
B|------------------|------------------|------------------|------------------|
G|------------------|------------------|------------------|------------------|
D|----3---3---3---3-|----3---3---3---3-|----3---3---3---3-|----3---3---3---3-|
A|--3---3---3---3---|--5---5---5---5---|------------------|------------------|
E|------------------|------------------|--6---6---6---6---|--6---6---6---6---|

e|------------------|------------------|------------------|------------------|
B|------------------|------------------|------------------|------------------|
G|------------------|------------------|------------------|------------------|
D|----3---3---3---3-|----3---3---3---3-|----3---3---3---3-|----3---3---3---3-|
A|------------------|------------------|--5---5---5---5---|--7---7---7---7---|
G|--5---5---5---5---|--6---6---6---6---|------------------|------------------|


If you would like you can play with a CAPO ON THIRD FRET! 
(tab relative to capo)

Intro:

|------------------|------------------|------------------|------------------|
|------------------|------------------|------------------|------------------|
|------------------|------------------|------------------|------------------|
|----0---0---0---0-|----0---0---0---0-|----0---0---0---0-|----0---0---0---0-|
|--0---0---0---0---|--2---2---2---2---|------------------|------------------|
|------------------|------------------|--3---3---3---3---|--3---3---3---3---|

|------------------|------------------|------------------|------------------|
|------------------|------------------|------------------|------------------|
|------------------|------------------|------------------|------------------|
|----0---0---0---0-|----0---0---0---0-|----0---0---0---0-|----0---0---0---0-|
|------------------|------------------|--2---2---2---2---|--4---4---4---4---|
|--2---2---2---2---|--3---3---3---3---|------------------|------------------|


They have yet to play it live so Im not sure how they play it but this is all by ear!
This is such a lovely song and I hope you have fun playing it!

Future by Paramore (Paramore)

YouTube Tutorial: http://www.youtube.com/watch?v=oVOgmuNXZ8M&feature=youtu.be

Peace and Love, 
Jacqueline Anne :)
comments
print report bad tab
5 comments total. Showing first comments.
0 reply
mewithoutyou96 wrote on April 13 2013, 03:53 pm

For the part that you put:

+1 reply
mewithoutyou96 wrote on April 13 2013, 03:58 pm

for the part that you put:

e|------------------|------------------|
B|------------------|------------------|
G|------------------|------------------|
D|----3---3---3---3-|----3---3---3---3-|
A|------------------|------------------|
E|--6---6---6---6---|--6---6---6---6---|

e|------------------|------------------|
B|------------------|------------------|
G|------------------|------------------|
D|----3---3---3---3-|----3---3---3---3-|
A|------------------|------------------|
G|--5---5---5---5---|--6---6---6---6---|

its easier to play:

e|------------------|------------------|
B|------------------|------------------|
G|------------------|------------------|
D|----3---3---3---3-|----3---3---3---3-|
A|--1---1---1---1---|--1---1---1---1---|
E|------------------|------------------|

e|------------------|------------------|
B|------------------|------------------|
G|------------------|------------------|
D|----3---3---3---3-|----3---3---3---3-|
A|--0---0---0---0---|--1---1---1---1---|
E|------------------|------------------|

0 reply
daydreamin' wrote on April 17 2013, 05:48 pm

I love this song, it's the perfect finish to the album. C:

I want to post or [tab]
guest
You may want to rate the tab now too:
select rating
Please do not post tabs as comments. Select "correction" instead!