Oops, an error
Loading. Please wait.

Future Tab

version 3
version 3

Whole song

61 views 1 this week
no commentswrite comment
1 2 3 4 5
2 more votes to show rating
add to favorites
launch autoscroll
font size
0
reset
how to read this tab
guitar tuner
Autoscroll
slow
fast
+/-
esc
set tempo
stop
Help us to improve Ultimate-Guitar.com Take our survey!
×
Author
Capo
3rd fret
*************************************************************************************************************

                                              Paramore - Future
                               Album: Paramore / Self-Titled Deluxe [2013/2014]

*************************************************************************************************************

Tuning: Drop D, DADGBe   [Lead-Guitar]
Tuning: Standard, EADGBe [Acoustic Guitar]
Capo: 3rd fret           [Acoustic Guitar]


[Intro]

  Acoustic Guitar

e|---------------------|----------------------|---------------------|---------------------|
B|---------------------|----------------------|---------------------|---------------------|
G|---------------------|----------------------|---------------------|---------------------|
D|-----0---0---0---0---|------0---0---0---0---|-----0---0---0---0---|-----0---0---0---0---|
A|---0---0---0---0-----|---2---2---2---2------|---------------------|---------------------|
E|---------------------|----------------------|---3---3---3---3-----|---3---3---3---3-----|


e|---------------------|---------------------|---------------------|---------------------|
B|---------------------|---------------------|---------------------|---------------------|
G|---------------------|---------------------|---------------------|---------------------|
D|-----0---0---0---0---|-----0---0---0---0---|-----0---0---0---0---|-----0---0---0---0---|
A|---------------------|---------------------|---2---2---2---2-----|---4---4---4---4-----|
E|---2---2---2---2-----|---3---3---3---3-----|---------------------|---------------------|


[Verse 1]

  Acoustic Guitar

e|---------------------|----------------------|---------------------|---------------------|
B|---------------------|----------------------|---------------------|---------------------|
G|---------------------|----------------------|---------------------|---------------------|
D|-----0---0---0---0---|------0---0---0---0---|-----0---0---0---0---|-----0---0---0---0---|
A|---0---0---0---0-----|---2---2---2---2------|---------------------|---------------------|
E|---------------------|----------------------|---3---3---3---3-----|---3---3---3---3-----|


e|---------------------|---------------------|---------------------|---------------------|
B|---------------------|---------------------|---------------------|---------------------|
G|---------------------|---------------------|---------------------|---------------------|
D|-----0---0---0---0---|-----0---0---0---0---|-----0---0---0---0---|-----0---0---0---0---|
A|---------------------|---------------------|---2---2---2---2-----|---4---4---4---4-----|
E|---2---2---2---2-----|---3---3---3---3-----|---------------------|---------------------|


e|---------------------|----------------------|---------------------|--------------------|
B|---------------------|----------------------|---------------------|--------------------|
G|---------------------|----------------------|---------------------|--------------------|
D|-----0---0---0---0---|------0---0---0---0---|-----0---0---0---0---|----------(0)---0---|
A|---0---0---0---0-----|---2---2---2---2------|---------------------|--------------------|
E|---------------------|----------------------|---3---3---3---3-----|---3--3--3---3------|


e|---------------------|---------------------|---------------------|---------------------|
B|---------------------|---------------------|---------------------|---------------------|
G|---------------------|---------------------|---------------------|---------------------|
D|-----0---0---0---0---|-----0---0---0---0---|-----0---0---0---0---|-----0---0---0---0---|
A|---------------------|---------------------|---2---2---2---2-----|---4---4---4---4-----|
E|---2---2---2---2-----|---3---3---3---3-----|---------------------|---------------------|


e|----------------------------------------------------------------|
B|----------------------------------------------------------------|
G|----------------------------------------------------------------|
D|---5------------2---2-----------2---2-----------2---2-----------|
A|---5------------2---2-----------2---2-----------2---2-----------|
E|---3---(32x)---h3---0---(7x)---h3---0---(7x)---h3---0---(16x)---|   (2x)



[Verse 2]

  Acoustic Guitar

e|---------------------|----------------------|---------------------|---------------------|
B|---------------------|----------------------|---------------------|---------------------|
G|---------------------|----------------------|---------------------|---------------------|
D|-----0---0---0---0---|------0---0---0---0---|-----0---0---0---0---|-----0---0---0---0---|
A|---0---0---0---0-----|---2---2---2---2------|---------------------|---------------------|
E|---------------------|----------------------|---3---3---3---3-----|---3---3---3---3-----|


e|---------------------|---------------------|---------------------|---------------------|
B|---------------------|---------------------|---------------------|---------------------|
G|---------------------|---------------------|---------------------|---------------------|
D|-----0---0---0---0---|-----0---0---0---0---|-----0---0---0---0---|-----0---0---0---0---|
A|---------------------|---------------------|---2---2---2---2-----|---4---4---4---4-----|
E|---2---2---2---2-----|---3---3---3---3-----|---------------------|---------------------|


e|---------------------|----------------------|---------------------|--------------------|
B|---------------------|----------------------|---------------------|--------------------|
G|---------------------|----------------------|---------------------|--------------------|
D|-----0---0---0---0---|------0---0---0---0---|-----0---0---0---0---|----------(0)---0---|
A|---0---0---0---0-----|---2---2---2---2------|---------------------|--------------------|
E|---------------------|----------------------|---3---3---3---3-----|---3--3--3---3------|


e|---------------------|---------------------|---------------------|---------------------|
B|---------------------|---------------------|---------------------|---------------------|
G|---------------------|---------------------|---------------------|---------------------|
D|-----0---0---0---0---|-----0---0---0---0---|-----0---0---0---0---|-----0---0---0---0---|
A|---------------------|---------------------|---2---2---2---2-----|---4---4---4---4-----|
E|---2---2---2---2-----|---3---3---3---3-----|---------------------|---------------------|



e|----------------------------------------------------------------|
B|----------------------------------------------------------------|
G|----------------------------------------------------------------|
D|---5------------2---2-----------2---2-----------2---2-----------|
A|---5------------2---2-----------2---2-----------2---2-----------|
E|---3---(32x)---h3---0---(7x)---h3---0---(7x)---h3---0---(16x)---|   (3x)


e|---------------|
B|---------------|
G|---------------|
D|---5-----------|
A|---5-----------|
E|---3---(32x)---|




[Instrumental]

  Lead Guitar

e|---12---13---17b---12---13--------12---13---15b---|
B|----------------------------13br------------------|
G|--------------------------------------------------|
D|--------------------------------------------------|
A|--------------------------------------------------|
D|--------------------------------------------------|  


e|---12h13p--12h13p--12h13p--15----15----15----15----15------|---12h13p--12h13p--12h13p--15----15----15------|
B|------------------------------13----13----13----13----13---|------------------------------13----13----13---|
G|-----------------------------------------------------------|-----------------------------------------------|
D|-----------------------------------------------------------|-----------------------------------------------|
A|-----------------------------------------------------------|-----------------------------------------------|
D|-----------------------------------------------------------|-----------------------------------------------|


e|---15----15------|---12h13p--12h13p--12h13p--17----17----17----17----17------|---12h13p--12h13p--12h13p--|
B|------13----13---|------------------------------15----15----15----15----15---|---------------------------|
G|-----------------|-----------------------------------------------------------|---------------------------|
D|-----------------|-----------------------------------------------------------|---------------------------|
A|-----------------|-----------------------------------------------------------|---------------------------|
D|-----------------|-----------------------------------------------------------|---------------------------|


e|---17----17----17----17h18p17---|---12h13p--12h13p--12h13p--15----15----15----15----15------|
B|------15----15----15------------|------------------------------13----13----13----13----13---|
G|--------------------------------|-----------------------------------------------------------|
D|--------------------------------|-----------------------------------------------------------|
A|--------------------------------|-----------------------------------------------------------|
D|--------------------------------|-----------------------------------------------------------|


e|---12h13p--12h13p--12h13p--15----15----15----15----15------|---12h13p--12h13p--12h13p--17----17----17------|
B|------------------------------13----13----13----13----13---|------------------------------15----15----15---|
G|-----------------------------------------------------------|-----------------------------------------------|
D|-----------------------------------------------------------|-----------------------------------------------|
A|-----------------------------------------------------------|-----------------------------------------------|
D|-----------------------------------------------------------|-----------------------------------------------|


e|---17h18p17---|---12h13p--12h13p--12h13p--17----17----17----17----17------|
B|--------------|------------------------------15----15----15----15----15---|
G|--------------|-----------------------------------------------------------|
D|--------------|-----------------------------------------------------------|
A|--------------|-----------------------------------------------------------|
D|--------------|-----------------------------------------------------------|


e|-------------------------------------------------------------------------------------------------------|
B|-------------------------------------------------------------------------------------------------------|
G|-------------------------------------------------------------------------------------------------------|
D|---8-----------10----------3/---5----------0---3/---5----------0---3/---5----------0---3/---5----------|
A|---8-----------10----------3/---5----------0---3/---5----------0---3/---5----------0---3/---5----------|
D|---8---(14x)---10---(2x)---3/---5---(2x)---0---3/---5---(2x)---0---3/---5---(2x)---0---3/---5---(2x)---|(2x)



e|---12---13----------12---13---17----17----17----17----17----17----17h18p17---12---13----------|
B|-------------13br----------------15----15----15----15----15----15----------------------13br---|
G|----------------------------------------------------------------------------------------------|
D|----------------------------------------------------------------------------------------------|
A|----------------------------------------------------------------------------------------------|
D|----------------------------------------------------------------------------------------------|   Pause


e|---------------------------------------------------------------------------------------------------|
B|---------------------------------------------------------------------------------------------------|
G|---------------------------------------------------------------------------------------------------|
D|---3/---5----------0---3/---5----------0---3/---5----------8-----------10----------3/---5----------|
A|---3/---5----------0---3/---5----------0---3/---5----------8-----------10----------3/---5----------|
D|---3/---5---(2x)---0---3/---5---(2x)---0---3/---5---(2x)---8---(14x)---10---(2x)---3/---5---(2x)---|


e|---------------------------------------------------------------|
B|---------------------------------------------------------------|
G|---------------------------------------------------------------|
D|---0---3/---5----------0---3/---5----------0---3/---5----------|
A|---0---3/---5----------0---3/---5----------0---3/---5----------|
D|---0---3/---5---(2x)---0---3/---5---(2x)---0---3/---5---(2x)---|



e|---17---13---12--------17---15---13---12---17---18---17---13---15--------12-------17---13---12--------12--|
B|------------------13------------------------------------------------13-------13------------------13-------|
G|----------------------------------------------------------------------------------------------------------|
D|----------------------------------------------------------------------------------------------------------|
A|----------------------------------------------------------------------------------------------------------|
D|----------------------------------------------------------------------------------------------------------|


e|--------17---15---13---17---13---17---13---17---13---17---|---17---15---13---12--------12--------12---|
B|---13-----------------------------------------------------|-----------------------13--------13--------|
G|----------------------------------------------------------|-------------------------------------------|
D|----------------------------------------------------------|-------------------------------------------|
A|----------------------------------------------------------|-------------------------------------------|
D|----------------------------------------------------------|-------------------------------------------|


e|---17---15---13---12--------12---18---17---17br---17br---|---12---13---17---15---10---|---12---13---17---|
B|-----------------------13--------------------------------|----------------------------|------------------|
G|---------------------------------------------------------|----------------------------|------------------|
D|---------------------------------------------------------|----------------------------|------------------|
A|---------------------------------------------------------|----------------------------|------------------|
D|---------------------------------------------------------|----------------------------|------------------|


e|---15---8---7---|---12---13---17---15---17br---|---12---10---8---7---|---12h13p--12h13p--12h13p---|
B|----------------|------------------------------|---------------------|----------------------------|
G|----------------|------------------------------|---------------------|----------------------------|
D|----------------|------------------------------|---------------------|----------------------------|
A|----------------|------------------------------|---------------------|----------------------------|
D|----------------|------------------------------|---------------------|----------------------------|



e|---17----17----17----17----17---12h13p--12h13p--12h13p---15----15----15----15----15------|
B|------15----15----15----15----------------------------------13----13----13----13----13---|
G|-----------------------------------------------------------------------------------------|
D|-----------------------------------------------------------------------------------------|
A|-----------------------------------------------------------------------------------------|
D|-----------------------------------------------------------------------------------------|
   

*************************************************************************************************************

| h   Hammer-on
| b   Bend
| br  Bend release
| p   Pull-off
| /   Slide up

*************************************************************************************************************
Suggest correction
Give kudos to tab author, rate the tab!
1 2 3 4 5
comments
print report bad tab
guest
You may want to rate the tab now too:
select rating
Wanna post a correction for this tab? Suggest correction