Oops, an error
Loading. Please wait.

Grow Up Tab

version 6
version 6

Interactive

19 views 3 this week
no commentswrite comment
1 2 3 4 5
3 more votes to show rating
add to favorites
launch autoscroll
font size
0
reset
how to read this tab
guitar tuner
Autoscroll
slow
fast
+/-
esc
set tempo
stop
Help us to improve Ultimate-Guitar.com Take our survey!
×
Author
Tuning
D A D G B E
*************************************************************************************************************

                                                Paramore - Grow Up
                                 Album: Paramore / Self-Titled Deluxe [2013/2014]

*************************************************************************************************************

Tuning: Drop D, DADGBe



[Verse 1]

  Guitar 1

e|-----------------------------------------------------------------------------------------------------------|
B|-----------------------------------------------------------------------------------------------------------|
G|----------7--------------7--------------7-----------------------7------------7-----------7-----------------|
D|-----------------------------------------------------------------------------------------------------------|
A|---5---/9---9---5-----/9---9---5-----/9---9---5--0--2--0-----/9---9-------/9---9------/9---9---------------|
D|----------------------------------------------------------5------------5------------5---------5--0--2--0---|

(2x)



[Chorus 1]

  Guitar 1

e|-------h10-------h10----------------------------------------------------------------------|
B|-------h10-------h10----------------------------------------------------------------------|
G|-----------------------------------------------------7-------7----------------------7/9---|
D|---0---------0---------9---x-x---9--9---9/12-----5-------5---------2---x-x---2--2---------|
A|---0---------0---------9---x-x---9--9---9/12-----5---5---5---5-----2---x-x---2--2---5/7---|
D|---0---------0---------9---x-x---9--9---9/12-----5-------5---------2---x-x---2--2---------|



e|-------h10-------h10----------------------------------------------------------------------------------|
B|-------h10-------h10----------------------------------------------------------------------------------|
G|-----------------------------------------------------7-------7----------------------------------------|
D|---0---------0---------9---x-x---9--9---9/12-----5-------5---------2---x-x---2--2---2---x-x-x-x-x-x---|
A|---0---------0---------9---x-x---9--9---9/12-----5---5---5---5-----2---x-x---2--2---2---x-x-x-x-x-x---|
D|---0---------0---------9---x-x---9--9---9/12-----5-------5---------2---x-x---2--2---2---x-x-x-x-x-x---|




[Verse 2]

  Guitar 1

e|-----------------------------------------------------------------------------------------------------------|
B|-----------------------------------------------------------------------------------------------------------|
G|----------7--------------7--------------7-----------------------7------------7-----------7-----------------|
D|-----------------------------------------------------------------------------------------------------------|
A|---5---/9---9---5-----/9---9---5-----/9---9---5--0--2--0-----/9---9-------/9---9------/9---9---------------|
D|----------------------------------------------------------5------------5------------5---------5--0--2--0---|

(2x)



[Chorus 2]

  Guitar 1

e|-------h10-------h10----------------------------------------------------------------------|
B|-------h10-------h10----------------------------------------------------------------------|
G|-----------------------------------------------------7-------7----------------------7/9---|
D|---0---------0---------9---x-x---9--9---9/12-----5-------5---------2---x-x---2--2---------|
A|---0---------0---------9---x-x---9--9---9/12-----5---5---5---5-----2---x-x---2--2---5/7---|
D|---0---------0---------9---x-x---9--9---9/12-----5-------5---------2---x-x---2--2---------|



e|-------h10-------h10----------------------------------------------------------------------------|
B|-------h10-------h10----------------------------------------------------------------------------|
G|-----------------------------------------------------7-------7----------------------------------|
D|---0---------0---------9---x-x---9--9---9/12-----5-------5---------2---x-x---2--2---2---x-x-x---|
A|---0---------0---------9---x-x---9--9---9/12-----5---5---5---5-----2---x-x---2--2---2---x-x-x---|
D|---0---------0---------9---x-x---9--9---9/12-----5-------5---------2---x-x---2--2---2---x-x-x---|




[Bridge]

  Guitar 1

e|-----------------------------------------------------------------------------------------------------------|
B|-----------------------------------------------------------------------------------------------------------|
G|----------7--------------7--------------7-----------------------7------------7-----------7-----------------|
D|-----------------------------------------------------------------------------------------------------------|
A|---5---/9---9---5-----/9---9---5-----/9---9---5--0--2--0-----/9---9-------/9---9------/9---9---------------|
D|----------------------------------------------------------5------------5------------5---------5--0--2--0---|

(4x)


Guitar 2 (Solo):

e|---0-----------0--------------------0-----------0--------------------|
B|-------7-----------0-------0------------7-----------0-------0--------|
G|-----------7-----------2-------2/-----------7-----------2-------2/---|
D|---------------------------------------------------------------------|
A|---------------------------------------------------------------------|
D|---------------------------------------------------------------------|



e|-------0-2-0-----------0-2-0-----------0-2-0-----------0-2-0-----------0-2-0-----------0-2-0-------------|
B|---0-3-------3-0-3-0-3-------3-0-3-0-3-------3-0-3-0-3-------3-0-3-0-3-------3-0-3-0-3-------3-0-3-0-3---|
G|---------------------------------------------------------------------------------------------------------|
D|---------------------------------------------------------------------------------------------------------|
A|---------------------------------------------------------------------------------------------------------|
D|---------------------------------------------------------------------------------------------------------|



e|---0-2-0-----------0-2-0------------5---|
B|---------3-0-3-0-3-------3-0-3-0-3------|
G|----------------------------------------|
D|----------------------------------------|
A|----------------------------------------|
D|----------------------------------------|   Pause




[Outro]

  Guitar 1

e|-------h10-------h10----------------------------------------------------------------------|
B|-------h10-------h10----------------------------------------------------------------------|
G|-----------------------------------------------------7-------7----------------------7/9---|
D|---0---------0---------9---x-x---9--9---9/12-----5-------5---------2---x-x---2--2---------|
A|---0---------0---------9---x-x---9--9---9/12-----5---5---5---5-----2---x-x---2--2---5/7---|
D|---0---------0---------9---x-x---9--9---9/12-----5-------5---------2---x-x---2--2---------|



e|-------h10-------h10----------------------------------------------------------------------------|
B|-------h10-------h10----------------------------------------------------------------------------|
G|-----------------------------------------------------7-------7----------------------------------|
D|---0---------0---------9---x-x---9--9---9/12-----5-------5---------2---x-x---2--2---2---x-x-x---|
A|---0---------0---------9---x-x---9--9---9/12-----5---5---5---5-----2---x-x---2--2---2---x-x-x---|
D|---0---------0---------9---x-x---9--9---9/12-----5-------5---------2---x-x---2--2---2---x-x-x---|


(2x)
 

*************************************************************************************************************

| /  Slide up
| h  Hammer-on
| x  Dead note

*************************************************************************************************************
Suggest correction
Give kudos to tab author, rate the tab!
1 2 3 4 5
comments
print report bad tab
guest
You may want to rate the tab now too:
select rating
Wanna post a correction for this tab? Suggest correction