Oops, an error
Loading. Please wait.

Grudges tab

256 views 6 this week
no commentswrite comment
1 2 3 4 5
3 more votes to show rating
add to favorites
×
Save as Personal and add changes to this tab that will be seen only by you. Learn more ›
×
You can save this tab as Personal to edit and correct it or add notes. All changes will be seen only by you. Learn more »
launch autoscroll
font size
0
reset
how to read this tab
guitar tuner
edit
Autoscroll
slow
fast
+/-
esc
set tempo
stop
About this tab version
Full tab of guitar part, not synth chords. Please rate or comment. Was this info helpful? Yes No
Paramore - "Grudges"
Tuning - Standard
tabbed by jjhand


[Intro]
   D                        G                       A                       G
e|-------5--5-----5----5--|-----------------------|-------5-------5-------|-----------------------|
B|-------------7----------|----8----8-------8-----|------------7-------7--|---3-/5--3-/7----------|
G|------------------------|------------7----------|-----------------------|-----------------7-----|
D|-0--0-------------------|-5---------------------|-7--7------------------|-----------------------|
A|------------------------|-----------------------|-----------------------|-----------------------|
E|------------------------|-----------------------|-----------------------|-----------------------|




[Verse]

   play with heavy reverb and slapback delay
e|------------------------|-----------------------|-----------------------|----------5-----5--5--|
B|----------7-----7-------|----------7-----7------|----------7-----7------|----------7-----7--7--|
G|----------7-----7-------|----------7-----7------|----------7-----7------|----------7-----7--7--|
D|------------------------|-----------------------|-----------------------|----------------------|
A|------------------------|-----------------------|-----------------------|----------------------|
E|------------------------|-----------------------|-----------------------|----------------------|

e|------------------------|-----------------------|-----------------------|----------------------|
B|----------7-----7-------|----------7-----7------|----------7-----8------|----------10----------|
G|----------7-----7-------|----------7-----7------|----------7-----9------|----------11----------|
D|------------------------|-----------------------|-----------------------|----------------------|
A|------------------------|-----------------------|-----------------------|----------------------|
E|------------------------|-----------------------|-----------------------|----------------------|



[Prechorus]

e|---------10--10----------10--10---|
B|---------10--10----------10--10---|
G|-11--11----------11--11-----------| play 7x
D|-12--12----------12--12-----------|
A|----------------------------------|
E|----------------------------------|


e|---------10--10-------------------|
B|---------10--10-------------------|
G|-11--11---------------------------|
D|-12--12---------------------------|
A|----------------------------------|
E|----------------------------------|
                           "Whoo!"




[Chorus]

   D                        G                       A                       G
e|-------5--5-----5----5--|-----------------------|-------5-------5-------|--------5--------------|
B|-------------7----------|----8----8-------8-----|------------7-------7--|---5-------7-----------|
G|------------------------|------------7----------|-----------------------|-----------------7-----|
D|-0--0-------------------|-5---------------------|-7--7------------------|-----------------------|
A|------------------------|-----------------------|-----------------------|-----------------------|
E|------------------------|-----------------------|-----------------------|-----------------------|
   

e|-------5--5-----5----5--|-----------------------|-------5-------5-------|-----------------------|
B|-------------7----------|----8----8-------8-----|------------7-------7--|---3-/5--3-/7----------|
G|------------------------|------------7----------|-----------------------|-----------------7-----|
D|-0--0-------------------|-5---------------------|-5--5------------------|-----------------------|
A|------------------------|-----------------------|-----------------------|-----------------------|
E|------------------------|-----------------------|-----------------------|-----------------------|




[Verse 2]

e|------/5--------------|-----------------------|-------9-------------|---10-------------14TP-|
B|----------------------|-----7p5---------------|---------------------|---------10------------|
G|----------------------|----------7------------|---------------------|------11---------------|
D|----------------------|-----------------------|---------------------|-----------------------|
A|----------------------|-----------------------|---------------------|-----------------------|
E|----------------------|-----------------------|---------------------|-----------------------|

e|------/5--------------|-----7-----------------|------/9-------------|-------12-10-----------|
B|----------------------|-----------------------|---------------------|----10-----------------|
G|----------------------|--------6--7-----------|---------------------|-----------------------|
D|----------------------|-----------------------|---------------------|-----------------------|
A|----------------------|-----------------------|---------------------|-----------------------|
E|----------------------|-----------------------|---------------------|-----------------------|



[Prechorus 2]

e|-----------------------|-----------------------|-----------------------|-----------------------|
B|-----------------------|-----------------------|-------2----------2----|-------2----------2----|
G|-------0----------0----|-4--4--0----4--4--0----|-2--2-------2--2-------|-2--2-------2--2-------|
D|-4--4-------4--4-------|-----------------------|-----------------------|-----------------------|
A|-----------------------|-----------------------|-----------------------|-----------------------|
E|-----------------------|-----------------------|-----------------------|-----------------------|

e|-----------------------|-----------------------|-----------------------|-------5---------------|
B|-----------------------|-------3----------3----|-------3----------3----|----3------------------|
G|-------0----------0----|----0----------0-------|----0----------0-------|-4---------------------|
D|-4--4-------4--4-------|-2----------2----------|-4----------4----------|-----------------------|
A|-----------------------|-----------------------|-----------------------|-----------------------|
E|-----------------------|-----------------------|-----------------------|-----------------------|



[Chorus 2]

   D                        G                       A                       G
e|-------5--5-----5----5--|-----------------------|-------5-------5-------|-----------------------|
B|-------------7----------|----8----8-------8-----|------------7-------7--|----5-----------7------|
G|------------------------|------------7----------|-----------------------|-----------7-----------|
D|-0--0-------------------|-5---------------------|-7--7------------------|-7---------------------|
A|------------------------|-----------------------|-----------------------|-----------------------|
E|------------------------|-----------------------|-----------------------|-----------------------|
   

e|-------5--5-----5----5--|-----------------------|-------5-------5-------|-----------------------|
B|-------------7----------|----8----8-------8-----|------------7-------7--|------5h7--------7-----|
G|------------------------|------------7----------|-----------------------|-----------7-----------|
D|-0--0-------------------|-5---------------------|-5--5------------------|-7--7------------------|
A|------------------------|-----------------------|-----------------------|-----------------------|
E|------------------------|-----------------------|-----------------------|-----------------------|

   C#m                      D                       C#m/E                   D
e|------------------------|-----------------------|-----------------------|-5----7---------5------|
B|-------5-------5--------|----7----7-------7-----|-------5--------5------|-----------5-----------|
G|-6--6-------6-----------|-7----------7----------|-6--6--------6---------|-----------------------|
D|------------------------|-----------------------|-----------------------|-----------------------|
A|------------------------|-----------------------|-----------------------|-----------------------|
E|------------------------|-----------------------|-----------------------|-----------------------|

   
e|-------5--5-----5----5--|-----------------------|-------5-------5-------|---5-------------------|
B|-------------7----------|----8----8-------8-----|------------7-------7--|------5\3---/7---------|
G|------------------------|------------7----------|-----------------------|-----------------7-----|
D|-0--0-------------------|-5---------------------|-5--5------------------|-----------------------|
A|------------------------|-----------------------|-----------------------|-----------------------|
E|------------------------|-----------------------|-----------------------|-----------------------|



[Bridge]
e|------------------------------|
B|--7--7------------------------|
G|--7--7------------------------|   play 2x
D|------------------------------|
A|------------------------------|
E|------------------------------|


e|---------------------------|
B|--7--7--7--7--7--7-----7---|
G|--7--7--7--7--7--7-----7---|   play 8x
D|---------------------------|
A|---------------------------|
E|---------------------------|
   "Why did it take so long?"



[Chorus 2]

   D                        G                       A                       G
e|-------5--5-----5----5--|-----------------------|-------5-------5-------|-----------------------|
B|-------------7----------|----8----8-------8-----|------------7-------7--|----5-----------7------|
G|------------------------|------------7----------|-----------------------|-----------7-----------|
D|-0--0-------------------|-5---------------------|-7--7------------------|-7---------------------|
A|------------------------|-----------------------|-----------------------|-----------------------|
E|------------------------|-----------------------|-----------------------|-----------------------|
   

e|-------5--5-----5----5--|-----------------------|-------5-------5-------|-----------------------|
B|-------------7----------|----8----8-------8-----|------------7-------7--|---5--5--5-------7-----|
G|------------------------|------------7----------|-----------------------|------------7----------|
D|-0--0-------------------|-5---------------------|-5--5------------------|-----------------------|
A|------------------------|-----------------------|-----------------------|-----------------------|
E|------------------------|-----------------------|-----------------------|-----------------------|

   C#m                      D                       C#m/E                   D
e|------------------------|-----------------------|-----------------------|-5----7---------5------|
B|-------5-------5--------|----7----7-------7-----|-------5--------5------|-----------5-----------|
G|-6--6-------6-----------|-7----------7----------|-6--6--------6---------|-----------------------|
D|------------------------|-----------------------|-----------------------|-----------------------|
A|------------------------|-----------------------|-----------------------|-----------------------|
E|------------------------|-----------------------|-----------------------|-----------------------|

   
e|-------5--5-----5----5--|-----------------------|-------5-------5-------|---5-------------------|
B|-------------7----------|----8----8-------8-----|------------7-------7--|------5\3---/7---------|
G|------------------------|------------7----------|-----------------------|-----------------7-----|
D|-0--0-------------------|-5---------------------|-5--5------------------|-----------------------|
A|------------------------|-----------------------|-----------------------|-----------------------|
E|------------------------|-----------------------|-----------------------|-----------------------|



[Outro]

e|------/5--------------|-----------------------|-------9-------------|---10------------------|
B|----------------------|-----7p5---------------|---------------------|---------10------------|
G|----------------------|----------7------------|---------------------|------11---------------|
D|----------------------|-----------------------|---------------------|-----------------------|
A|----------------------|-----------------------|---------------------|-----------------------|
E|----------------------|-----------------------|---------------------|-----------------------|

e|------/5--------------|-----7-----------------|-------9-------------|-------12-10-----------|
B|----------------------|-----------------------|---------------------|----10-----------------|
G|----------------------|--------6--7-----------|---------------------|-----------------------|
D|----------------------|-----------------------|---------------------|-----------------------|
A|----------------------|-----------------------|---------------------|-----------------------|
E|----------------------|-----------------------|---------------------|-----------------------|

e|------/5--------------|-----7-----------------|-------9---10p9-10p9-|-----------------------|
B|----------------------|-----------------------|---------------------|------7----------------|
G|----------------------|--------6--7-----------|---------------------|------------7----------|
D|----------------------|-----------------------|---------------------|-----------------------|
A|----------------------|-----------------------|---------------------|-----------------------|
E|----------------------|-----------------------|---------------------|-----------------------|

e|-------5------5---5---|-----7-----------------|------/9---10p9------|-----------------------|
B|----------------------|-----------------------|-----------------10--|-----------------------|
G|----------------------|--------6--7-----------|---------------------|------9p7~-------------|
D|----------------------|-----------------------|---------------------|-----------------------|
A|----------------------|-----------------------|---------------------|-----------------------|
E|----------------------|-----------------------|---------------------|-----------------------|


************************************

| h   Hammer-on
| p   Pull-off
| /   Slide up
| \   Slide down
| ~   Vibrato
| TP  Tremolo Picking

************************************

            
            
Suggest correction
Creating personal tab
Creating personal tab
You can edit any tab online and save it as your Personal.

You can edit, replace or remove any tab part or add personal notes – all changes will be seen only by you.

Personal tabs can be accessed anytime from any device, even offline.
Learn more »
Give kudos to tab author, rate the tab!
1 2 3 4 5
comments
print report bad tab
guest
You may want to rate the tab now too:
select rating
Wanna post a correction for this tab? Suggest correction