Oops, an error
Loading. Please wait.

Hallelujah Chords

version 1
version 1

Acoustic

Whole song

Interactive

94,105 views 39 this week
1 commentread comment
1 2 3 4 5
x 11
add to favorites
launch autoscroll
font size
0
reset
transpose
0
reset
display chords
guitar tuner
Autoscroll
slow
fast
+/-
esc
set tempo
stop
Help us to improve Ultimate-Guitar.com Take our survey!
×
Author
Difficulty
Tuning
Capo
intermediate
D A D G B E
1st fret
Hallelujah - Paramore
Capo 1 
This is from just listening to youtube :
http://www.youtube.com/watch?v=aO2n1NGCEqU

Ok just listen to the video.
I lost track of the chords somewhere around the instrumental and if anyone can 
help me out tell me!

[Intro]
E|--x-0-2-5-5--|
B|--3-3-3-3-2--|
G|--2-2-2-2-2--|
D|--0-0-0-0-0--|x2
A|-------------|
D|-------------|

E|--x-0-2-5-5----x-0-2-5-5--|
B|--3-3-3-3-2----3-3-2-2-2--|
G|--2-2-2-2-2----4-4-2-2-2--|
D|--0-0-0-0-0----4-4-2-2-0--|x2
A|--0-0-0-0-0----2-2-0-0-0--|
D|--0-0-0-0-0---------------|

[Verse]
E|--x--2--x--|
B|--3--3--2--|
G|--2--4--2--|
D|--0--4--2--|
A|--0--2--0--|
D|--0--------|
    D  Bm A

[Chorus]
E|--x--2--3--|
B|--3--3--3--|
G|--2--4--0--|
D|--0--4--0--|
A|--0--2--2--|
D|--0-----x--|
    D  Bm G

[Bridge]
E|-------------------|
B|-------------------|
G|-------------------|
D|--4-5-7-12--4-5-7--|
A|--4-5-7-12--4-5-7--|
D|--4-5-7-12--4-5-7--|

[Intro]
D D
D Bm A D Bm A

D
Somehow everything's gonna fall
Bm A
Right in to place
D
If we only had a way to make it all
Bm A
Fall faster everyday

D 
If only time flew like
Bm A
A dove
D
We gotta make it fly
Bm A
Faster than I'm falling in love

D x2

D                       Bm G
This time we're not givin up
D                       Bm G
Let's make it last forever, screamin
D Bm G
Hallelujah
D Bm G
Lets make it last forever

D                                       Bm A
Holdin on to patience wearin thin
D                                       Bm A
I can't force these eyes to see the end
D
If only time flew like
Bm A
A dove
D
We could watch it fly
Bm A
And just keep lookin up
D C#DA x3

This time we're not givin up
Let's make it last forever
Screamin
Hallelujah
We'll make it last forever

F#GAD F#GA
And we've got time
On our hands
And we've got
Got nothing but time on our hands
Got nothing but
Got nothing but
Got nothing but time on our hands

[Instrumental]

This time we're not givin up
Let's make it last forever
Screamin
Hallelujah, Hallelujah
Let's make it last forever
Suggest correction
comments
print report bad tab
1 comment total.
0 reply
nade-em 10 Dec 19, 2012 04:29 AM

I was seriously hoping someone was going to tab out that guy's video.
PLEASEEEE finish tabbing this! 5 star rating if you do!!!

guest
You may want to rate the tab now too:
select rating
Wanna post a correction for this tab? Suggest correction