Oops, an error
Loading. Please wait.
We have Chord Pro version of Hard Times.
It's the closest thing you can get to the original song and it has interactive parts. Check out the tab »
×

Hard Times bass

version 2
version 2

Whole song

  • I listened to the official video (https://www.yout... Show more

Interactive

3,091 views 54 this week
1 commentread comment
1 2 3 4 5
x 5
add to favorites
×
Save as Personal and add changes to this tab that will be seen only by you. Learn more ›
×
You can save this tab as Personal to edit and correct it or add notes. All changes will be seen only by you. Learn more »
launch autoscroll
font size
0
reset
guitar tuner
edit
Autoscroll
slow
fast
+/-
esc
set tempo
stop
Author
Difficulty
About this tab version
I listened to the official video (https://www.youtube.com/watch?v=AEB6ibtdPZc) on 50 percent speed to figure out this tab. Some of the fills are strange/hard to hear, so either give it your best shot, or just ignore them. It should sound good either way. Was this info helpful? Yes No
[Intro]
(Right before the verse)
G|----18\-|
D|--------|
A|-/6-----|
E|--------|

[Verse]
(Slightly different rhthym on measure 2 during the 3rd time)
G|-----------|--------------|-----------|-----------------|
D|-----------|--------------|-----------|-------13--------|
A|-6-6-6-8-8-|-4-4-4-8-8h10-|-6-6-6-8-8-|-/13-15----11-11-| x3
E|-----------|--------------|-----------|-----------------|

[Chorus]
G|------|-----------|-----------------|-------------|-------------------|
D|------|-----------|-----------------|-------------|-------6-6-----5-5-|
A|------|-----------|-0h2-3-3-3-3-3-1-|-6-6-6-6-6-6-|-------------------|
E|-14\1-|-1-1-1-1-1-|-----------------|-------------|-4-4-4-----3-3-----|

G|-----------|-----------------|-------8-8-8---|-------------|
D|-----------|-----------------|-------------8\|-----6-6---6-|
A|-----------|-0h2-3-3-3-3-3-1-|-6-6-6---------|---------6---|
E|-1-1-1-1-1-|-----------------|---------------|-4-4---------|

[Verse]
G|-----------|--------------|-----------|-----------|
D|-----------|--------------|-----------|-------13\-|
A|-6-6-6-8-8-|-4-4-4-8-8h10-|-6-6-6-8-8-|-/13-15----|
E|-----------|--------------|-----------|-----------|
(Slightly different rhthym on measure 2 during the 2nd time)
G|-----------|--------------|-----------|-----------------|
D|-----------|--------------|-----------|-------13--------|
A|-6-6-6-8-8-|-4-4-4-8-8h10-|-6-6-6-8-8-|-/13-15----11-11-| x2
E|-----------|--------------|-----------|-----------------|

[Chorus]
(The fill right before the chorus is kinda hard to hear, I gave it my best guess)
G|-------------|-----------|-----------------|---------------|-------------------|
D|-------------|-----------|-----------------|---------------|-------6-6-----5-5-|
A|-----6-------|-----------|-0h2-3-3-3-3-3-1-|-6-6-6-6-6-6h8-|-------------------|
E|-4-6---6-4-3-|-1-1-1-1-1-|-----------------|---------------|-4-4-4-----3-3-----|

G|-----------|-----------------|-----------------|-------------|
D|-----------|-----------------|-----------------|-----6-6---6-|
A|-----------|-0h2-3-3-3-3-3-1-|-6-6-6-6-6-6-6h8-|---------6---|
E|-1-1-1-1-1-|-----------------|-----------------|-4-4---------|

[Bridge]
(There are spaces in between each time the bass plays here)
G|---------|---------|---------|-------------|-------------|---------------------|
D|---------|---------|---------|-------13----|-------------|-6-5-----------------|
A|-6-6-6-8-|---------|-6-6-6-8-|-13-15----11-|-6-6-6-6-8-8-|-----6---------------|
E|---------|-4-4-4-8-|---------|-------------|-------------|-------8-6-4-4-4-8-8-|

G|-------------------|------------------|
D|-6-6---------------|---------13-------|
A|-----4-4-6-6-6-8-8-|-6/13-15----11-11-|
E|-------------------|------------------|

[Chorus]
G|-----------------------------|
D|-15-15-15-15-15-15-15-15-----|
A|-------------------------15\-|
E|-----------------------------|

G|-----------|-----------------|---------------|-------------------|
D|-----------|-----------------|---------------|-------6-6-----5-5-|
A|-----------|-0h2-3-3-3-3-3-1-|-6-6-6-6-6-6h8-|-------------------| x2
E|-1-1-1-1-1-|-----------------|---------------|-4-4-4-----3-3-----|

G|-----------|-----------------|-------8-8-------|---------------|
D|-----------|-----------------|---------------8-|-----6-6-----4-|
A|-----------|-0h2-3-3-3-3-3-1-|-6-6-6-----6-----|---------6-----|
E|-1-1-1-1-1-|-----------------|-----------------|-4-4-------3---|

G|-----------|-----------------|-------------------------|
D|-----------|-----------------|---------5-5-6-6-6-6-----|
A|-----------|-0h2-3-3-3-3-3-1-|-6-6-6-6-----------------|
E|-1-1-1-1-1-|-----------------|---------------------4-3-|

[Outro]
G|-------------------|-----------------|-----------------|-------------|
D|-------------------|-----------------|-----------------|-------------|
A|-------------------|-3-3-3-3-3-3-3-1-|-6-6-6-6-6-6-6-8-|-------------|
E|-1-1-1-1-1-1-1-1-1-|-----------------|-----------------|-4-4-4-4-4-3-|

G|---------------|-----------------|-----------------|-------------------|
D|---------------|-----------------|-----------------|---------6-6-----6-|
A|---------------|-3-3-3-3-3-3-3-1-|-6-6-6-6-6-6-6-8-|-------------6-6---|
E|-1-1-1-1-1-1-1-|-----------------|-----------------|-4-4-4-4-----------|

************************************

| \  Slide down
| /  Slide up
| h  Hammer-on


************************************

            
            
Suggest correction
Creating personal tab
Creating personal tab
You can edit any tab online and save it as your Personal.

You can edit, replace or remove any tab part or add personal notes – all changes will be seen only by you.

Personal tabs can be accessed anytime from any device, even offline.
Learn more »
comments
print report bad tab
1 comment total.
0 reply
mgimmer84 54 May 03, 2017 05:00 AM

The fill right before the chorus is extremely close just 1 wrong note and a little timing issue:
G|----------------|
D|----------------|
A|--------3-------|
E|-4--6--6--6-4-3-|
Very good tab, though.

guest
You may want to rate the tab now too:
select rating
Wanna post a correction for this tab? Suggest correction