Oops, an error
Loading. Please wait.

Hello Cold World bass

version 1
version 1

Whole song

Interactive

6,580 views 1 this week
1 commentread comment
1 2 3 4 5
x 7
add to favorites
×
Save as Personal and add changes to this tab that will be seen only by you. Learn more ›
×
You can save this tab as Personal to edit and correct it or add notes. All changes will be seen only by you. Learn more »
launch autoscroll
font size
0
reset
guitar tuner
edit
Autoscroll
slow
fast
+/-
esc
set tempo
stop
-------------------------------------------------------------------------------
			     HELLO COLD WORLD - Paramore
-------------------------------------------------------------------------------
Tabbed By : Alex	
e-mail: 

Tuning: Drop Db

Intro
Gb|----------------------------------|
Db|----------------------------------|
Ab|---------44442222--------44442222-|
Db|-22222222--------77777777---------|2x

Verse 0:13 2x
I feel happy, I feel sad...
Gb|----------------------------------------------------------------|
Db|------------------------6---------------------------------------|
Ab|-------------------------97-7-7-7-7-7-7-7-7-7-7-7-9-9-11-11-9-9-|
Db|-2-2-2-2-2-2-2-2-2-2-246----------------------------------------|

Gb|-------------------------------|
Db|-------------------------------|
Ab|-4-4-4-4-4-4-4-0-0-0-0-0-0-0-0-|
Db|-------------------------------|

Pre-chorus 0	:32
Yeah, it's how you make it happen...
Gb|----------------------------------------|
Db|----------------------------------------|
Ab|----------------------------------------|
Db|-6-6--7-7--6-6--7-7--6-6--6-6--99999999-|

Chorus 0:38
It's such a cold, cold world...
Gb|--------------------------------------------------------------------------|
Db|--------------------------------------------------------------------------|
Ab|-----------222222222------------------------------------------------------|
Db|-2222222222---------7777777777777777-22222222222-6666666666-7777777777777-|

Gb|--------------------------------------------------------------------------|
Db|-------------------222222222----------------------------------------------|
Ab|-444444444-22222222---------0000000000-4444444444-222222222---------------|
Db|-----------------------------------------------------------77777777777777-|

Intro 01:04
Oh, oh...
Gb|----------------------------------|
Db|----------------------------------|
Ab|---------44442222--------44442222-|
Db|-22222222--------77777777---------|

Verse 2x 01:10
Girls and boys...
Gb|----------------------------------------------------------------|
Db|------------------------6---------------------------------------|
Ab|-------------------------97-7-7-7-7-7-7-7-7-7-7-7-9-9-11-11-9-9-|
Db|-2-2-2-2-2-2-2-2-2-2-246----------------------------------------|

Gb|-------------------------------|
Db|-------------------------------|
Ab|-4-4-4-4-4-4-4-0-0-0-0-0-0-0-0-|
Db|-------------------------------|

Pre-chorus 01:30
Go out and go and get it
Gb|--------------------------------------------|
Db|--------------------------------------------|
Ab|--------------------------------------------|
Db|-6-6--7-7--6-6--7-7--6-6--6-6--999999999999-|

Chorus 01:36
It's such a cold, cold world...
Gb|--------------------------------------------------------------------------|
Db|--------------------------------------------------------------------------|
Ab|-----------222222222------------------------------------------------------|
Db|-2222222222---------7777777777777777-22222222222-6666666666-7777777777777-|

Gb|--------------------------------------------------------------------------|
Db|-------------------222222222----------------------------------------------|
Ab|-444444444-22222222---------0000000000-4444444444-222222222---------------|
Db|-----------------------------------------------------------77777777777777-|

Bass solo
Gb|-------------------------------------------------------------|
Db|-------------------------------------99----99----------------|
Ab|-7777-9-1111-7-9-7777-9-1111-7-9-1111--1111---99-11111-99-77-|
Db|-------------------------------------------------------------|2x

Bridge 02:15
Ah, aah, don't need my eyes open
Gb|------------------------------|
Db|------------------------------|
Ab|--------------444444222222-42-|
Db|-777777777777-----------------|

Gb|------------------------------|
Db|------------------------------|
Ab|--------------444444222222222-|
Db|-777777777777-----------------|

Guitar solo 02:27
...I just want to feel something!
Gb|--------------------------------------------------------------------------|
Db|--------------------------------------------------------------------------|
Ab|-----2222-4444-7777----------------------2222-4444-0000-------------------|
Db|-2222---------------7777777777777777-2222---------------77777777777777777-|

Chorus 02:42
It's such a cold, cold world...
Gb|--------------------------------------------------------------------------|
Db|--------------------------------------------------------------------------|
Ab|-----------222222222------------------------------------------------------|
Db|-2222222222---------7777777777777777-22222222222-6666666666-7777777777777-|

Gb|--------------------------------------------------------------------------|
Db|--------------------222222222----------------------------------------7777-|
Ab|-444444444-22222222----------0000000000-4444444444-222222222--------------|
Db|------------------------------------------------------------777777777-----|

Outro 03:08
Oh, aaah, ooh, hello cold world...
Gb|----------------------------------|
Db|----------------------------------|
Ab|---------44442222--------44442222-|
Db|-22222222--------77777777---------|

Gb|------------------------------------|
Db|------------------------------------|
Ab|---------44442222--------4-4-2-2----|
Db|-22222222--------77777777--------2~-|

            
            
Suggest correction
Creating personal tab
Creating personal tab
You can edit any tab online and save it as your Personal.

You can edit, replace or remove any tab part or add personal notes – all changes will be seen only by you.

Personal tabs can be accessed anytime from any device, even offline.
Learn more »
comments
print report bad tab
1 comment total.
0 reply
Lukecin 52 Dec 21, 2013 03:25 AM

Are you deaf?? Most of the notes are 1 string up!!

guest
You may want to rate the tab now too:
select rating
Wanna post a correction for this tab? Suggest correction