Oops, an error
Loading. Please wait.

Hello Cold World Tab

version 1
version 1

Whole song

Interactive

6,628 views 1 this week
no commentswrite comment
1 2 3 4 5
excellent!
x 6
add to favorites
launch autoscroll
font size
0
reset
how to read this tab
guitar tuner
Tab Pro tools
  • play this tab
  • loop segment
  • change instrument
  • show fretboard
  • metronome
×
Best way to learn
"Hello Cold World"
Autoscroll
slow
fast
+/-
esc
set tempo
stop
Contributor
-------------------------------------------------------------------------------
                             Paramore - Hello Cold World
-------------------------------------------------------------------------------

Tabbed by: Jared Lim
Email: jared3225@gmail.com


Tuning: Drop C# (can be played in Drop D by playing everything one step down)


HI! This is my third tab so far! I hope you enjoy it! If you make any covers on
YouTube using this tab, please, PLEASE give me credit! :D


    ARRANGEMENT
*******************
1. Main Riff (x2)
2. Verse
3. Pre-chorus 1
4. Chorus
5. Main Riff
6. Verse
3. Pre-chorus 2
4. Chorus
5. Bridge
6. Solo
7. Chorus
8. Main Riff (x2)
*******************
    HAVE FUN ;D


Main Riff (Rhythm Guitar): # = omit during "8"                  (play this part at "8")
D#|-----------------------------------------------------------------|---------|
A#|-----------------------------------------------------------------|---------|
F#|-----------------6-6-6-6-4-4-4-4-----------------6-6-6-6-4-4-4-4-|---------|
C#|-2-2-2-2-2-2-2-2-6-6-6-6-4-4-4-4-7-7-7-7-7-7-7-7-6-6-6-6-4-4-4-4-|2~~~~~~~-|
G#|-2-2-2-2-2-2-2-2-4-4-4-4-2-2-2-2-7-7-7-7-7-7-7-7-4-4-4-4-2-2-2-2-|2~~~~~~~-|
C#|-2-2-2-2-2-2-2-2-----------------7-7-7-7-7-7-7-7-----------------|2~~~~~~~-|
                                                      #   #   #   #
Main Riff (Lead Guitar):
D#|---------------------------------------------------------------------------|
A#|------9-12~~~9~~~---9----9------9-12~~~-9~~~-------------------------------|
F#|-9~~~------------11---11---9~~~--------------11-9-8-9~~~-------------------|
C#|---------------------------------------------------------------------------|
G#|---------------------------------------------------------------------------|
C#|---------------------------------------------------------------------------|


Verse (Rhythm Guitar): * = palm mute
D#|---------------------|-----------------------------------------------------|
A#|---------------------|-----------------------------------------------------|
F#|---------------------|-----------------------------------------------------|
C#|-2------11-----7-----|2-2-2-2-----11-11-11-11-----7-7-7-7------------------|
G#|-2-x32--11-x8--7-x8--|2-2-2-2-x8--11-11-11-11-x2--7-7-7-7-x2---------------|
C#|-2------11-----7-----|2-2-2-2-----11-11-11-11-----7-7-7-7------------------|
    *      *      *      * *   *     *  *     *      * *   *

Verse (Lead Guitar): starts at the "|" above
D#|-|-------------------------------------------------------------------------|
A#|-|-------------------------------------------------------------------------|
F#|-|13-13-13-13/14/13-13-13-13-13-13-13-11-11--------------------------------|
C#|-|x--x--x--x--x--x--x--x--x--x--x--x--x--x---------------------------------|
G#|-|11-11-11-11/12/11-11-11-11-11-11-11-9--9---------------------------------|
C#|-|-------------------------------------------------------------------------|


Pre-chorus 1 (Rhythm Guitar):
D#|-----x-x-----x-x-----x-x-----x-x-----x-x-----x-x---------------------------|
A#|-----x-x-----x-x-----x-x-----x-x-----x-x-----x-x---------------------------|
F#|-----x-x-----x-x-----x-x-----x-x-----x-x-----x-x---------------------------|
C#|-6-6-x-x-6-6-x-x-7-7-x-x-7-7-x-x-6-6-x-x-6-6-x-x--9------------------------|
G#|-6-6-x-x-6-6-x-x-7-7-x-x-7-7-x-x-6-6-x-x-6-6-x-x--9-x5---------------------|
C#|-6-6-x-x-6-6-x-x-7-7-x-x-7-7-x-x-6-6-x-x-6-6-x-x--9------------------------|

Pre-chorus 1 (Lead Guitar):
D#|---------------------------------------------------------------------------|
A#|---------------------------------------------------------------------------|
F#|-4-4-----6-6-----4-4-----8-------------------------------------------------|
C#|-x-x-x2--x-x-x2--x-x-x2--x-x5----------------------------------------------|
G#|-2-2-----4-4-----2-2-----6-------------------------------------------------|
C#|---------------------------------------------------------------------------|


Chorus (Rhythm Guitar):
D#|---------------------------------------------------------------------------|
A#|---------------------------------------------------------------------------|
F#|---------------------------------------------------------------------------|
C#|-2-----9-----7------2-----6-----7------11-----9-----2-----7-----11-----9---|
G#|-2-x8--9-x8--7-x16--2-x8--6-x8--7-x16--11-x8--9-x8--2-x8--7-x8--11-x8--9-x8|
C#|-2-----9-----7------2-----6-----7------11-----9-----2-----7-----11-----9---|

D#|---------------------------------------------------------------------------|
A#|---------------------------------------------------------------------------|
F#|---------------------------------------------------------------------------|
C#|-7-------------------------------------------------------------------------|
G#|-7-x5-(x8 for second chorus)-----------------------------------------------|
C#|-7-------------------------------------------------------------------------|

Chorus (Lead Guitar):
D#|-12-----12-----12-----12-----12----12-----12-----12-----12----12-----12----|
A#|-9-x12--10-x4--9-x28--10-x4--9-x8--10-x8--9-x12--10-x4--9-x8--10-x8--9-x16-|
F#|-9------9------9------9------9-----9------9------9------9-----9------9-----|
C#|---------------------------------------------------------------------------|
G#|---------------------------------------------------------------------------|
C#|---------------------------------------------------------------------------|

D#|-12------------------------------------------------------------------------|
A#|-10-x8---------------------------------------------------------------------|
F#|-9-------------------------------------------------------------------------|
C#|---------------------------------------------------------------------------|
G#|---------------------------------------------------------------------------|
C#|---------------------------------------------------------------------------|


Pre-chorus 2 (Rhythm Guitar):
D#|-----x-x-----x-x-----x-x-----x-x-----x-x-----x-x---------------------------|
A#|-----x-x-----x-x-----x-x-----x-x-----x-x-----x-x---------------------------|
F#|-----x-x-----x-x-----x-x-----x-x-----x-x-----x-x---------------------------|
C#|-6-6-x-x-6-6-x-x-7-7-x-x-7-7-x-x-6-6-x-x-6-6-x-x--9------------------------|
G#|-6-6-x-x-6-6-x-x-7-7-x-x-7-7-x-x-6-6-x-x-6-6-x-x--9-x8---------------------|
C#|-6-6-x-x-6-6-x-x-7-7-x-x-7-7-x-x-6-6-x-x-6-6-x-x--9------------------------|

Pre-chorus 2 (Lead Guitar):
D#|---------------------------------------------------------------------------|
A#|---------------------------------------------------------------------------|
F#|-4-4-----6-6-----4-4-----8-------------------------------------------------|
C#|-x-x-x2--x-x-x2--x-x-x2--x-x8----------------------------------------------|
G#|-2-2-----4-4-----2-2-----6-------------------------------------------------|
C#|---------------------------------------------------------------------------|


Bridge (Rhythm Guitar):
D#|---------------------------------------------------------------------------|
A#|---------------------------------------------------------------------------|
F#|---------------------------------------------------------------------------|
C#|-2~~~~~~~~----2-2-2~~~~~~~~------------------------------------------------|
G#|-2~~~~~~~~----2-2-2~~~~~~~~------------------------------------------------|
C#|-2~~~~~~~~----2-2-2~~~~~~~~------------------------------------------------|

D#|---------------------------------------------------------------------------|
A#|---------------------------------------------------------------------------|
F#|---------------------------------------------------------------------------|
C#|-7-------11-----9----------------------------------------------------------|x2
G#|-7-x16---11-x8--9-x8-------------------------------------------------------|
C#|-7-------11-----9----------------------------------------------------------|

Bridge (Lead Guitar):
D#|-12~~~~~~~----121212~~~~~~~------------------------------------------------|
A#|-9~~~~~~~~----9-9-9~~~~~~~~------------------------------------------------|
F#|-9~~~~~~~~----9-9-9~~~~~~~~------------------------------------------------|
C#|---------------------------------------------------------------------------|
G#|---------------------------------------------------------------------------|
C#|---------------------------------------------------------------------------|

D#|---------------------------------------------------------------------------|
A#|---------------------------------------------------------------------------|
F#|---------------------------------------------------------------------------|
C#|-7-------11-----9----------------------------------------------------------|x2
G#|-7-x16---11-x8--9-x8-------------------------------------------------------|
C#|-7-------11-----9----------------------------------------------------------|

Solo (Lead Guitar):
D#|----------12-11-9----9-------------------|
A#|-----9-12---------12---9~~-12~~-9~~-12~~~|
F#|-4/9-------------------------------------|
C#|-----------------------------------------|
G#|-----------------------------------------|
C#|-----------------------------------------|

D#|--------12-11-9----9---------------------|
A#|---9-12---------12---9~~-12~~-11~~-9~~~--|
F#|-9---------------------------------------|
C#|-----------------------------------------|
G#|-----------------------------------------|
C#|-----------------------------------------|

D#|--------12-11-9----9---------------------|
A#|---9-12---------12---9~~-12~~-9~~-12~~~--|
F#|-9---------------------------------------|
C#|-----------------------------------------|
G#|-----------------------------------------|
C#|-----------------------------------------|

D#|----------------------------------9-12-9\|
A#|--------------------------9-10-12--------|
F#|-------------8-8-8-8-9-11----------------|
C#|-11-11-11-11-----------------------------|
G#|-----------------------------------------|
C#|-----------------------------------------|

Solo (Rhythm Guitar):
D#|---------------------------------------------------------------------------|
A#|---------------------------------------------------------------------------|
F#|-------4-----6-----9------------------4-----6------------------------------|
C#|-2-----4-x4--6-x4--9-x4--7------2-----4-x4--6-x4--6-----7------------------|
G#|-2-x4--2-----4-----7-----7-x16--2-x4--2-----4-----6-x4--7-x16--------------|
C#|-2-----------------------7------2-----------------6-----7------------------|
comments
print report bad tab
I want to post or [tab]
guest
You may want to rate the tab now too:
select rating
Please do not post tabs as comments. Select "correction" instead!