Oops, an error
Loading. Please wait.

Hello Cold World bass

version 2
version 2

Whole song

Interactive

208 views 3 this week
no commentswrite comment
1 2 3 4 5
2 more votes to show rating
add to favorites
×
Save as Personal and add changes to this tab that will be seen only by you. Learn more ›
×
You can save this tab as Personal to edit and correct it or add notes. All changes will be seen only by you. Learn more »
launch autoscroll
font size
0
reset
guitar tuner
edit
Autoscroll
slow
fast
+/-
esc
set tempo
stop
Tabbed by Dan Bogosian (UtBDan)
spillwaymusic.bandcamp.com

Tuning: Eb (need dat open string)

This bassline is almost 100% eighth notes.

Intro
Gb|----------------------------------|
Db|----------------------------------|
Ab|---------444422220000000044442222-|
Eb|-00000000-------------------------| x2
    1+2+3+4+1+2+3+4+1+2+3+4+1+2+3+4+

Verse 0:13
I feel happy, I feel sad...
Gb|-----------------------------------------------------------------|
Db|---------------------------------------------------------6-6-----|
Ab|-----------------------------7---7-7-7-7-7-7-7-7-7-7-9-9-----9-9-|
Eb|-0-0-0-0-0-0-0-0-0-0-0-0-4/7---7---------------------------------|
    1 + 2 + 3 + 4 + 1 + 2 + 3 + 4 + 1 + 2 + 3 + 4 + 1 + 2 + 3 + 4 +

Gb|-------------------------------|
Db|-------------------------------|
Ab|-4-4-4-4-4-4-4-0-0-0-0-0-0-0-0-|
Eb|-------------------------------|
    1 + 2 + 3 + 4 + 1 + 2 + 3 + 4

Gb|-----------------------------------------------------------------|
Db|---------------------------------------------------------6-6-----|
Ab|-----------------------------7---7-7-7-7-7-7-7-7-7-7-9-9---------|
Eb|-0-0-0-0-0-0-0-0-0-0-0-0-4/7---7-----------------------------7-7-|
    1 + 2 + 3 + 4 + 1 + 2 + 3 + 4 + 1 + 2 + 3 + 4 + 1 + 2 + 3 + 4 +

Gb|-------------------------------|
Db|-------------------------------|
Ab|-4-4-4-4-4-4-4-0-0-0-0-0-0-0-0-|
Eb|-------------------------------|
    1 + 2 + 3 + 4 + 1 + 2 + 3 + 4

Pre-chorus 0    :32
Yeah, it's how you make it happen...
Gb|--------------------------------------------------------------|
Db|--------------------------------------------------------------|
Ab|--------------------------------------------------------------|
Eb|-4-4-----4-4-----5-5-----5-5-----4-4-----4-4---7-7-7-7-7------|
    1 + 2 + 3 + 4 + 1 + 2 + 3 + 4 + 1 + 2 + 3 + 4 1 + 2 + 3 + 4 +

Chorus 0:38
It's such a cold, cold world...
Gb|------------------------------------------------------------------|
Db|------------------------------------------------------------------|
Ab|-----------------2-2-2-2-2-2-2-2-0-0-0-0-0-0-0-0-0-0-0-0-0-0------|
Eb|-0-0-0-0-0-0-0-0---------------------------------------------5-\\-|
    1 + 2 + 3 + 4 + 1 + 2 + 3 + 4 + 1 + 2 + 3 + 4 + 1 + 2 + 3 + 4 +

Gb|------------------------------------------------------------------|
Db|------------------------------------------------------------------|
Ab|---------------------------------------------------------------2/-|
Eb|-0-0-0-0-0-0-0-0-4-4-4-4-4-4-4-4-5-5-5-5-5-5-5-5-5-5-5-5-5-5-5----|
    1 + 2 + 3 + 4 + 1 + 2 + 3 + 4 + 1 + 2 + 3 + 4 + 1 + 2 + 3 + 4 +

Gb|------------------------------------------------------------------|
Db|---------------------------------2-2-2-2-2-2-2-2------------------|
Ab|-4-4-4-4-4-4-4-4-2-2-2-2-2-2-2-2-----------------0-0-0-0-0-0-0-2/-|
Eb|------------------------------------------------------------------|
    1 + 2 + 3 + 4 + 1 + 2 + 3 + 4 + 1 + 2 + 3 + 4 + 1 + 2 + 3 + 4 +

Gb|----------------------------------------------------------------|
Db|----------------------------------------------------------------|
Ab|-4-4-4-4-4-4-4-4-2-2-2-2-2-2-2p0-0-0-0-0-0-0-0-0----------------|
Eb|----------------------------------------------------------------|
    1 + 2 + 3 + 4 + 1 + 2 + 3 + 4 + 1 + 2 + 3 + 4 + 1 + 2 + 3 + 4 + 


Intro 01:04
Oh, oh...
Gb|----------------------------------|
Db|----------------------------------|
Ab|---------444422220000000044442222-|
eb|-00000000-------------------------|
    1+2+3+4+1+2+3+4+1+2+3+4+1+2+3+4+

Verse 2 01:10
Girls and boys...
Gb|-----------------------------------------------------------------|
Db|---------------------------------------------------------6-6-----|
Ab|-----------------------------7---7-7-7-7-7-7-7-7-7-7-9-9-----9-9-|
Eb|-0-0-0-0-0-0-0-0-0-0-0-0-4/7---7---------------------------------|
    1 + 2 + 3 + 4 + 1 + 2 + 3 + 4 + 1 + 2 + 3 + 4 + 1 + 2 + 3 + 4 +

Gb|-------------------------------|
Db|-------------------------------|
Ab|-4-4-4-4-4-4-4-0-0-0-0-0-0-0-0-|
Eb|-------------------------------|
    1 + 2 + 3 + 4 + 1 + 2 + 3 + 4

Gb|-----------------------------------------------------------------|
Db|---------------------------------------------------------6-6-----|
Ab|-----------------------------7---7-7-7-7-7-7-7-7-7-7-9-9---------|
Eb|-0-0-0-0-0-0-0-0-0-0-0-0-4/7---7-----------------------------7-7-|
    1 + 2 + 3 + 4 + 1 + 2 + 3 + 4 + 1 + 2 + 3 + 4 + 1 + 2 + 3 + 4 +

Gb|-------------------------------|
Db|-------------------------------|
Ab|-4-4-4-4-4-4-4-0-0-0-0-0-0-0-0-|
Eb|-------------------------------|
    1 + 2 + 3 + 4 + 1 + 2 + 3 + 4

Pre-chorus 01:30
Go out and go and get it
Gb|---------------------------------------------------------------|
Db|---------------------------------------------------------------|
Ab|---------------------------------------------------------------|
Eb|-4-4-----4-4-----5-5-----5-5-----4-4-----4-4---7-7-7-7-7-7-7-7-|
    1 + 2 + 3 + 4 + 1 + 2 + 3 + 4 + 1 + 2 + 3 + 4 1 + 2 + 3 + 4 +

Chorus 01:36
It's such a cold, cold world...
Gb|------------------------------------------------------------------|
Db|------------------------------------------------------------------|
Ab|-----------------2-2-2-2-2-2-2-2-0-0-0-0-0-0-0-0-0-0-0-0-0-0------|
Eb|-0-0-0-0-0-0-0-0---------------------------------------------5-\\-|
    1 + 2 + 3 + 4 + 1 + 2 + 3 + 4 + 1 + 2 + 3 + 4 + 1 + 2 + 3 + 4 +

Gb|------------------------------------------------------------------|
Db|------------------------------------------------------------------|
Ab|---------------------------------------------------------------2/-|
Eb|-0-0-0-0-0-0-0-0-4-4-4-4-4-4-4-4-5-5-5-5-5-5-5-5-5-5-5-5-5-5-5----|
    1 + 2 + 3 + 4 + 1 + 2 + 3 + 4 + 1 + 2 + 3 + 4 + 1 + 2 + 3 + 4 +

Gb|------------------------------------------------------------------|
Db|---------------------------------2-2-2-2-2-2-2-2------------------|
Ab|-4-4-4-4-4-4-4-4-2-2-2-2-2-2-2-2-----------------0-0-0-0-0-0-0-2/-|
Eb|------------------------------------------------------------------|
    1 + 2 + 3 + 4 + 1 + 2 + 3 + 4 + 1 + 2 + 3 + 4 + 1 + 2 + 3 + 4 +

Gb|-----------------------------------------------------------------|
Db|-----------------------------------------------------------------|
Ab|-4-4-4-4-4-4-4-4-2-2-2-2-2-2-2p0-0-0-0-0-0-0-0-0-0-0-0-0-0-0-0-0-|
Eb|-----------------------------------------------------------------|
    1 + 2 + 3 + 4 + 1 + 2 + 3 + 4 + 1 + 2 + 3 + 4 + 1 + 2 + 3 + 4 + 

Bass solo
Gb|-----------------------------------------------------------------|
Db|---------6-6-------------6-6-----6-6-9-9-6-6-9-9-----6-6---------|
Ab|-7-7-7-9-----7-9-7-7-7-9-----7-9-----------------9-9-----9-9-7-7-|
Eb|-----------------------------------------------------------------|
    1 + 2 + 3 + 4 + 1 + 2 + 3 + 4 + 1 + 2 + 3 + 4 + 1 + 2 + 3 + 4 + 

Gb|-----------------------------------------------------------------|
Db|---------6-6-------------6-6-----6-6-9-9-6-6-9-9-----6-6---------|
Ab|-7-7-7-9-----7-9-7-7-7-9-----7-9-----------------9-9-----9-9-7p0-|
Eb|-----------------------------------------------------------------|
    1 + 2 + 3 + 4 + 1 + 2 + 3 + 4 + 1 + 2 + 3 + 4 + 1 + 2 + 3 + 4 + 

Bridge 02:15
Ah, aah, don't need my eyes open
Gb|-----------------------------------------------------------------|
Db|-----------------------------------------------------------------|
Ab|-0-0-0-0-0-0-0-0-0-0-0-0-0-0-0-0-4-4-4-4-4-4-4-4-2-2-2-2-2-2-4-2-|
Eb|-----------------------------------------------------------------|
    1 + 2 + 3 + 4 + 1 + 2 + 3 + 4 + 1 + 2 + 3 + 4 + 1 + 2 + 3 + 4 + 

Gb|-----------------------------------------------------------------|
Db|-----------------------------------------------------------------|
Ab|-0-0-0-0-0-0-0-0-0-0-0-0-0-0-0-0-4-4-4-4-4-4-4-4-2-2-2-2-2-2-2-2-|
Eb|-----------------------------------------------------------------|
    1 + 2 + 3 + 4 + 1 + 2 + 3 + 4 + 1 + 2 + 3 + 4 + 1 + 2 + 3 + 4 + 

Guitar solo 02:27
...I just want to feel something!
Gb|-----------------------------------------------------------------|
Db|-------------------------2-2-2-2---------------------------------|
Ab|---------2-2-2-2-4-4-4-4---------4-4-4-4-4-4-4-4-4-4-4-4-4-4-4-4-|
Eb|-0-0-0-0---------------------------------------------------------|
    1 + 2 + 3 + 4 + 1 + 2 + 3 + 4 + 1 + 2 + 3 + 4 + 1 + 2 + 3 + 4 + 

Gb|-----------------------------------------------------------------|
Db|-----------------------------------------------------------------|
Ab|---------2-2-2-2-4-4-4-4-0-0-0-0-4-4-4-4-4-4-4-4-4-4-4-4-4-4-4-4-|
Eb|-0-0-0-0---------------------------------------------------------|
    1 + 2 + 3 + 4 + 1 + 2 + 3 + 4 + 1 + 2 + 3 + 4 + 1 + 2 + 3 + 4 + 


Chorus 02:42
It's such a cold, cold world...
Gb|------------------------------------------------------------------|
Db|------------------------------------------------------------------|
Ab|-----------------2-2-2-2-2-2-2-2-0-0-0-0-0-0-0-0-0-0-0-0-0-0------|
Eb|-0-0-0-0-0-0-0-0---------------------------------------------5-\\-|
    1 + 2 + 3 + 4 + 1 + 2 + 3 + 4 + 1 + 2 + 3 + 4 + 1 + 2 + 3 + 4 +

Gb|------------------------------------------------------------------|
Db|------------------------------------------------------------------|
Ab|---------------------------------------------------------------2/-|
Eb|-0-0-0-0-0-0-0-0-4-4-4-4-4-4-4-4-5-5-5-5-5-5-5-5-5-5-5-5-5-5-5----|
    1 + 2 + 3 + 4 + 1 + 2 + 3 + 4 + 1 + 2 + 3 + 4 + 1 + 2 + 3 + 4 +

Gb|------------------------------------------------------------------|
Db|---------------------------------2-2-2-2-2-2-2-2------------------|
Ab|-4-4-4-4-4-4-4-4-2-2-2-2-2-2-2-2-----------------0-0-0-0-0-0-0-2/-|
Eb|------------------------------------------------------------------|
    1 + 2 + 3 + 4 + 1 + 2 + 3 + 4 + 1 + 2 + 3 + 4 + 1 + 2 + 3 + 4 +

Gb|-----------------------------------------------------2-2-2-2-2-2-|
Db|-----------------------------------------------------------------|
Ab|-4-4-4-4-4-4-4-4-2-2-2-2-2-2-2p0-0-0-0-0-0-0-0-0-0---------------|
Eb|-----------------------------------------------------------------|
    1 + 2 + 3 + 4 + 1 + 2 + 3 + 4 + 1 + 2 + 3 + 4 + 1 + 2 + 3 + 4 + 


Outro 03:08
Oh, aaah, ooh, hello cold world...
Gb|----------------------------------|
Db|----------------------------------|
Ab|---------444422220000000044442222-|
Eb|-00000000-------------------------|
    1+2+3+4+1+2+3+4+1+2+3+4+1+2+3+4+

Gb|-----------------------------------|
Db|-----------------------------------|
Ab|---------44442222000000004-4-2-2---|
Eb|-00000000------------------------0-|
    1+2+3+4+1+2+3+4+1+2+3+4+1+2+3+4+1

            
            
Suggest correction
Creating personal tab
Creating personal tab
You can edit any tab online and save it as your Personal.

You can edit, replace or remove any tab part or add personal notes – all changes will be seen only by you.

Personal tabs can be accessed anytime from any device, even offline.
Learn more »
Give kudos to tab author, rate the tab!
1 2 3 4 5
comments
print report bad tab
guest
You may want to rate the tab now too:
select rating
Wanna post a correction for this tab? Suggest correction