Oops, an error
Loading. Please wait.

Hello Cold World Tab

version 3
version 3

Whole song

Interactive

2,141 views 1 this week
no commentswrite comment
1 2 3 4 5
2 more votes to show rating
add to favorites
launch autoscroll
font size
0
reset
how to read this tab
guitar tuner
Autoscroll
slow
fast
+/-
esc
set tempo
stop
Help us to improve Ultimate-Guitar.com Take our survey!
×
Author
Difficulty
Tuning
intermediate
D A D G B E
-------------------------------------------------------------------------------
                             HELLO COLD WORLD - Paramore
-------------------------------------------------------------------------------
Tabbed by:SomeRandom90sGuy
Email: Message me at http://www.youtube.com/user/SomeRandom90sGuy?feature=mhee


Check out my cover of Hello Cold World (First worldwide to Youtube!)

http://www.youtube.com/watch?v=goZAVOqK1K0&feature=channel_video_title


Tabbed by ear on day of song release (7th November 2011) You can find a tutorial of this 
song on my Youtube channel!
Tuning:Drop D tuning DADGBE




Rhythm intro

E|-----------------------------------------------------|
B|-----------------------------------------------------|x2
G|-------5-----3-----------5-----3---------------------|
D|-1-----5-x4--3-x4--5-----5-x4--3-x4------------------|
A|-1-x8--3-----1-----5-x8--3-----1---------------------|
D|-1-----------------5---------------------------------|

Lead Intro

E|-----------------------------------------------------|
B|-----8-11-8--6-8-6-8-----8-11-8--6-4-3-4-------------|x2
G|-8-------------------8-------------------------------|
D|-----------------------------------------------------|
A|-----------------------------------------------------|
D|-----------------------------------------------------|

Rhythm continued
                        M = Palm Mute    / \ slide notes
E|-----------------------------------------------------|
B|-----------------------------------------------------|
G|-----------------------------------------------------|
D|-----------------------------------------------------|
A|-----------------------------------------------------|
D|-1-x32--10-x8--6-x8----------------------------------|
   M      M      M

Lead Continued
                        M = Palm Mute    / \ slide notes
E|-----------------------------------------------------|
B|-----------------------------------------------------|
G|-8-888-8-888-8-888-8---10---8-8    -8-888-8-8-33-3-3-|
D|-8-888-8-888-8-888-8 / 10 \ 8-8 x2 -8-888-8-8-33-3-3-|
A|-6-666-6-666-6-666-6---8----6-6    -6-666-6-6-11-1-1-|
D|-----------------------------------------------------|
     MMM   MMM   MMM            M       MMM   M MM   M

Rhythm & Lead
                                          X = dead notes
E|-----------------------------------------------------|
B|-----------------------------------------------------|
G|-33-xx-33-xx-55-xx-55-xx-33-xx-33-xx-77777-----------|
D|-33-xx-33-xx-55-xx-55-xx-33-xx-33-xx-77777-----------|
A|-11-xx-11-xx-33-xx-33-xx-11-xx-11-xx-55555-----------|
D|-----------------------------------------------------|

Rhythm & Lead Chorus

D|-1----8----6-----1----5----6-----10----8----13----6----10----8----6----|
A|-1-x8-8-x8-6-x16-1-x8-5-x8-6-x16-10-x8-8-x8-13-x8-6-x8-10-x8-8-x8-6-x9-|
D|-1----8----6-----1----5----6-----10----8----13----6----10----8----6----|



E|---------------------------------------------------------------------------------|
B|---------------------------------------------------------------------------------|
G|---------------------------------------------------------------------------------|
D|-10-----8-----6------13---------131313--6------10-----8-----6------10-----8------|
A|-10-x8--8-x8--6-x16--13-(Hold)--131313--6-x16--10-x8--8-x8--6-x16--10-x8--8-x8---|
D|-10-----8-----6------13---------131313--6------10-----8-----6------10-----8------|



E|-------------------------------------------------------------------|
B|-------------------------------------------------------------------|
G|-------------------------------------------------------------------|
D|-1-----8-----10-----13-----6------1-----8-----10-----5-----6-------|
A|-1-x4--8-x4--10-x4--13-x4--6-x16--1-x4--8-x4--10-x4--5-x4--6-x16---|
D|-1-----8-----10-----13-----6------1-----8-----10-----5-----6-------|


Lead Solo 1/2
E|-------11-10-8-6-8-----------------11-10-8-6-8------------------11-10-8-6-8--|
B|---8-11------------8-11-8-11---8-11------------8-11---------8-11-------------|
G|-8---------------------------8----------------------10-8--8------------------|
D|-----------------------------------------------------------------------------|

2/2
E|---------------------------6-8--11\------------------------------------------|
B|-8-11-8-11-------------6-8---------------------------------------------------|
G|-----------5555-777778-------------------------------------------------------|
D|-----------------------------------------------------------------------------|


Ending rhythm and lead
G|-------5-----3-----------5-----3-----------5------3-----------3-3-3-3----------|
D|-1-----5-x4--3-x4--5-----5-x4--3-x4--1-----5-x4---3-x4--5-----3-3-3-3-1--------|
A|-1-x8--3-----1-----5-x8--3-----1-----1-x8--3------1-----5-x8--5-5-1-1-1-(Hold)-|
D|-1-----------------5-----------------1------------------5-------------1--------|

************************************

| /   slide up
| \   slide down
| h   hammer-on
| p   pull-off
| ~   vibrato
| +   harmonic
| x   Mute note
| b   Bend
| pb  Pre-bend
| br  Bend release
| pbr Pre-bend release
| brb Bend release bend

************************************
Suggest correction
Give kudos to tab author, rate the tab!
1 2 3 4 5
comments
print report bad tab
guest
You may want to rate the tab now too:
select rating
Wanna post a correction for this tab? Suggest correction