Oops, an error
Loading. Please wait.

Hello Cold World Tab

version 4
version 4

Whole song

Interactive

11,180 views 3 this week
2 commentsread comments
1 2 3 4 5
excellent!
x 6
add to favorites
launch autoscroll
font size
0
reset
how to read this tab
guitar tuner
Tab Pro tools
  • play this tab
  • loop segment
  • change instrument
  • show fretboard
  • metronome
×
Best way to learn
"Hello Cold World"
Autoscroll
slow
fast
+/-
esc
set tempo
stop
Contributor
-------------------------------------------------------------------------------
                             Hello Cold World - Paramore
-------------------------------------------------------------------------------
Tabbed by: skryde87
Email: markus.gunzelmann@googlemail.com

I've learned this completely by ear and tabbed it out.
I also recorded a cover on YouTube using that tab: http://www.youtube.com/watch?v=rF8bOP5jz_I


Tuning: Drop C#



---[ Intro ]---



Rhythm Guitar

eb|-------------------------------------------------------------------------|
Bb|-------------------------------------------------------------------------|
Gb|-9-9-9-9-9-9-9-9---------------------------------------------------------| 2x
Db|-9-9-9-9-9-9-9-9-11-11-11-11-9-9-9-9-7-7-7-7-7-7-7-7-11-11-11-11-9-9-9-9-|
Ab|-7-7-7-7-7-7-7-7-11-11-11-11-9-9-9-9-7-7-7-7-7-7-7-7-11-11-11-11-9-9-9-9-|
Db|-----------------11-11-11-11-9-9-9-9-7-7-7-7-7-7-7-7-11-11-11-11-9-9-9-9-|


Lead Guitar

eb|--------------------------------------------------------------------|
Bb|-------9-12---9--------9-------9---------9-12---9-------------------|
Gb|-9----------------11-------11------9----------------11---9---8---9--| 2x
Db|--------------------------------------------------------------------|
Ab|--------------------------------------------------------------------|
Db|--------------------------------------------------------------------|





---[ Verse ]---



Rhythm Guitar

eb|-----------------------------|
Bb|-----------------------------|
Gb|-----------------------------|
Db|-9---------6--------7--------|
Ab|-7-(32x)---4-(8x)---7-(8x)---|
Db|-----------------------------|



Lead Guitar (2nd part of the verse)

eb|-----------------------------------------------------------------|
Bb|-----9-------9-------9-------9-109---9-------9-------9-------9---|
Gb|-9-9-9---9-9-9---9-9-9---9-9-9-9-9---9---9-9-9---9-9-9---9-9-9---|
Db|-----------------------------------------------------------------|
Ab|-----------------------------------------------------------------|
Db|-----------------------------------------------------------------|
    . .     . .     . .     . .             . .     . .     . .

eb|---------------------------------|
Bb|---------------------------------|
Gb|-----9-------9-------6-------6---|
Db|-9-9-9---9-9-9---7-7-7---7-7-7---|
Ab|---------------------------------|
Db|---------------------------------|
    . .     . .     . .     . .




---[ Pre-Chorus }---



Rhythm Guitar

eb|-----------------------------------------------------------------|
Bb|-----------------------------------------------------------------|
Gb|-----------------------------------------------------------------|
Db|-6-6-----6-6-----7-7-----7-7-----6-6-----6-6-----9-9-9-9-9-------|
Ab|-6-6-----6-6-----7-7-----7-7-----6-6-----6-6-----9-9-9-9-9-------|
Db|-6-6-----6-6-----7-7-----7-7-----6-6-----6-6-----9-9-9-9-9-------|



Lead Guitar

eb|-----------------------------------------------------------------|
Bb|-----------------------------------------------------------------|
Gb|-4-4-----4-4-----6-6-----6-6-----4-4-----4-4-----8-8-8-8-8-------|
Db|-6-6-----6-6-----7-7-----7-7-----6-6-----6-6-----9-9-9-9-9-------|
Ab|-6-6-----6-6-----7-7-----7-7-----6-6-----6-6-----9-9-9-9-9-------|
Db|-----------------------------------------------------------------|




---[ Chorus ]---



Rhythm Guitar

eb|-----------------------------------------------------------------|
Bb|-----------------------------------------------------------------|
Gb|-9-9-9-9-9-9-9-9-------------------------------------------------|
Db|-9-9-9-9-9-9-9-9-9-9-9-9-9-9-9-9-7-7-7-7-7-7-7-7-7-7-7-7-7-7-7-7-|
Ab|-7-7-7-7-7-7-7-7-9-9-9-9-9-9-9-9-7-7-7-7-7-7-7-7-7-7-7-7-7-7-7-7-|
Db|-----------------9-9-9-9-9-9-9-9-7-7-7-7-7-7-7-7-7-7-7-7-7-7-7-7-|

eb|-----------------------------------------------------------------|
Bb|-----------------------------------------------------------------|
Gb|-9-9-9-9-9-9-9-9-------------------------------------------------|
Db|-9-9-9-9-9-9-9-9-6-6-6-6-6-6-6-6-7-7-7-7-7-7-7-7-7-7-7-7-7-7-7-7-|
Ab|-7-7-7-7-7-7-7-7-6-6-6-6-6-6-6-6-7-7-7-7-7-7-7-7-7-7-7-7-7-7-7-7-|
Db|-----------------6-6-6-6-6-6-6-6-7-7-7-7-7-7-7-7-7-7-7-7-7-7-7-7-|

eb|-------------------------------------------------------------------------|
Bb|-------------------------------------------------------------------------|
Gb|-----------------------------------------9-9-9-9-9-9-9-9-----------------|
Db|-11-11-11-11-11-11-11-11-9-9-9-9-9-9-9-9-9-9-9-9-9-9-9-9-7-7-7-7-7-7-7-7-|
Ab|-11-11-11-11-11-11-11-11-9-9-9-9-9-9-9-9-7-7-7-7-7-7-7-7-7-7-7-7-7-7-7-7-|
Db|-11-11-11-11-11-11-11-11-9-9-9-9-9-9-9-9-----------------7-7-7-7-7-7-7-7-|

eb|-------------------------------------------------------------------------|
Bb|-------------------------------------------------------------------------|
Gb|-------------------------------------------------------------------------|
Db|-11-11-11-11-11-11-11-11-9-9-9-9-9-9-9-9-7-7-7-7-7-7-7-7-----------------|
Ab|-11-11-11-11-11-11-11-11-9-9-9-9-9-9-9-9-7-7-7-7-7-7-7-7-----------------|
Db|-11-11-11-11-11-11-11-11-9-9-9-9-9-9-9-9-7-7-7-7-7-7-7-7-----------------|



Lead Guitar

eb|-------------------------------------------------------------|
Bb|-9---9---9---9---9---9---9---10--10--10--10--10--10--10--10--|
Gb|---9---9---9---9---9---9---9---9---9---9---9---9---9---9---9-|
Db|-------------------------------------------------------------|
Ab|-------------------------------------------------------------|
Db|-------------------------------------------------------------|

eb|-----------------------------------------------------------------|
Bb|-9---9---9---9---7---7---7---7---9---9---9---9---10--10--10--10--|
Gb|---9---9---9---9---9---9---9---9---9---9---9---9---9---9---9---9-|
Db|-----------------------------------------------------------------|
Ab|-----------------------------------------------------------------|
Db|-----------------------------------------------------------------|

eb|16-16-16-16-16-16-16-16-19-19-19-19-17-17-17-17-16-16-16-16-16-16-16-16-17-17-17-17-17-17-17-17|
Bb|-----------------------------------------------------------------------------------------------|
Gb|-----------------------------------------------------------------------------------------------|
Db|-----------------------------------------------------------------------------------------------|
Ab|-----------------------------------------------------------------------------------------------|
Db|-----------------------------------------------------------------------------------------------|

eb|-16-16-16-16-16-16-16-16-19-19-19-19-19-19-19-19-16-16-16-16-16-16-16-16---------------------|
Bb|---------------------------------------------------------------------------------------------|
Gb|---------------------------------------------------------------------------------------------|
Db|---------------------------------------------------------------------------------------------|
Ab|---------------------------------------------------------------------------------------------|
Db|---------------------------------------------------------------------------------------------|



--- Intro ---


--- Verse ---


--- Chorus ---





---[ Bridge ]---



Rhythm Guitar

eb|---------------------|---------------------|------------------------------------------------|
Bb|---------------------|---------------------|------------------------------------------------|
Gb|-9-------------------|-9-9-9---------------|-9----------------------------------------------|
Db|-9-------------------|-9-9-9---------------|-9----------------------------------------------|
Ab|-7-------------------|-7-7-7---------------|-7----------------------------------------------|
Db|---------------------|---------------------|------------------------------------------------|



Lead Guitar

eb|-16~-----------------|---------------------|------------------------------------------------|
Bb|---------------------|---------------------|-------9-12---9--------9--------9---------------|
Gb|---------------------|---------------------|-9----------------11-------11-------9~----------|
Db|---------------------|---------------------|------------------------------------------------|
Ab|---------------------|---------------------|------------------------------------------------|
Db|---------------------|---------------------|------------------------------------------------|




---[ Solo ]---



Rhythm Guitar

eb|---------------------------------------------------------------------|
Bb|---------------------------------------------------------------------|
Gb|-9-9-9-9---------------------9-9-9-9---------------------------------|
Db|-9-9-9-9-9-9-9-9-11-11-11-11-9-9-9-9-7-7-7-7-7-7-7-7-7-7-7-7-7-7-7-7-|
Ab|-7-7-7-7-9-9-9-9-11-11-11-11-7-7-7-7-7-7-7-7-7-7-7-7-7-7-7-7-7-7-7-7-|
Db|---------9-9-9-9-11-11-11-11---------7-7-7-7-7-7-7-7-7-7-7-7-7-7-7-7-|

eb|---------------------------------------------------------------------|
Bb|---------------------------------------------------------------------|
Gb|-9-9-9-9-------------------------------------------------------------|
Db|-9-9-9-9-9-9-9-9-11-11-11-11-6-6-6-6-7-7-7-7-7-7-7-7-7-7-7-7-7-7-7-7-|
Ab|-7-7-7-7-9-9-9-9-11-11-11-11-6-6-6-6-7-7-7-7-7-7-7-7-7-7-7-7-7-7-7-7-|
Db|---------9-9-9-9-11-11-11-11-6-6-6-6-7-7-7-7-7-7-7-7-7-7-7-7-7-7-7-7-|



Lead Guitar

eb|--------12-11-9----9--------------------------12-11-9----9-------------------|
Bb|---9-12---------12---9---12---9---12-----9-12---------12---9---12------------|
Gb|-9-------------------------------------9----------------------------11---9---|
Db|-----------------------------------------------------------------------------|
Ab|-----------------------------------------------------------------------------|
Db|-----------------------------------------------------------------------------|

eb|--------12-11-9----9-------------------------------------------------9-12-12-|
Bb|---9-12---------12---9---12---9---12----------------------------9-12---------|
Gb|-9-------------------------------------------------8-8-8-8-9-11--------------|
Db|---------------------------------------11-11-11-11---------------------------|
Ab|-----------------------------------------------------------------------------|
Db|-----------------------------------------------------------------------------|




--- Chorus ---


--- Intro ---



Enjoy!


************************************

| /   slide up
| \   slide down
| h   hammer-on
| p   pull-off
| ~   vibrato
| +   harmonic
| x   Mute note
| b   Bend
| pb  Pre-bend
| br  Bend release
| pbr Pre-bend release
| brb Bend release bend

************************************
comments
print report bad tab
2 comments total.
0 reply
bamzmab wrote on November 10 2011, 08:29 pm

great guitar cover for this! :D

0 reply
skryde wrote on November 11 2011, 06:16 pm

I made a small mistake. In the chorus for the lead guitar the notes in the 4th line aren't 16-19-16, the right notes are 16-19-17

I want to post or [tab]
guest
You may want to rate the tab now too:
select rating
Please do not post tabs as comments. Select "correction" instead!