Oops, an error
Loading. Please wait.

Hello Hello Tab

version 2
version 2

Solo

Whole song

Interactive

667 views 1 this week
no commentswrite comment
1 2 3 4 5
please rate
add to favorites
launch autoscroll
font size
0
reset
how to read this tab
guitar tuner
Tab Pro tools
  • play this tab
  • loop segment
  • change instrument
  • show fretboard
  • metronome
Autoscroll
slow
fast
+/-
esc
set tempo
stop
Difficulty
novice
Standard Tuning, this is my first tab, so sorry for any mistakes. 
Not sure if its right but it sounds pretty good. 
The strums sounds like halfs, I think its down down up up down down, 
but I dont want to confuse anyone so just do down strums :) 
If you do want to learn the proper strum listen to the song without 
lyrics (which I have a link for below this) and you should get it.
http://www.youtube.com/watch?v=o1euZuZF7vs


Enjoy :)

Intro
e[------------------------------------------]  
B[------------------------------------------]  
G[-3-3-3-3----6-6-6-6-----------------------]  
D[-3-3-3-3----6-6-6-6----4-4-4-4----6-6-6-6-]x4
A[-1-1-1-1----4-4-4-4----4-4-4-4----6-6-6-6-]  
E[-----------------------2-2-2-2----4-4-4-4-] 

 
Verse
e[------------------------------------------]  
B[------------------------------------------]  
G[-3-3-3-3---------------6-6-6-6------------]  
D[-3-3-3-3----4-4-4-4----6-6-6-6----6-6-6-6-]x4 After you've done the first
A[-1-1-1-1----4-4-4-4----4-4-4-4----6-6-6-6-]   2 lots of chords listen to
E[------------2-2-2-2---------------4-4-4-4-]   the strum the the next 2 
                                                because there is muting.

Pre-Chorus-I dont know what to call it...
e[----------------------------------------------]  
B[----------------------------------------------]  
G[-3-3-3-3----6-6-6-6----8-8-8-8----10-10-10-10-]  
D[-3-3-3-3----6-6-6-6----8-8-8-8----10-10-10-10-]x2 This Im pretty sure is 
A[-1-1-1-1----4-4-4-4----6-6-6-6----8--8--8--8--]   not right but it sounds
E[----------------------------------------------]   close enough.


Chorus
e[------------------------------------------]  
B[------------------------------------------]  
G[-3-3-3-3----6-6-6-6-----------------------]  
D[-3-3-3-3----6-6-6-6----4-4-4-4----6-6-6-6-]x6 The chorus has only 4 lots 
A[-1-1-1-1----4-4-4-4----4-4-4-4----6-6-6-6-]   but there is a little bit 
E[-----------------------2-2-2-2----4-4-4-4-]   after each chorus except 
                                                the 2nd last one.   


Verse
e[------------------------------------------]  
B[------------------------------------------]  
G[-3-3-3-3---------------6-6-6-6------------]  
D[-3-3-3-3----4-4-4-4----6-6-6-6----6-6-6-6-]x4 Remember to listen to the 
A[-1-1-1-1----4-4-4-4----4-4-4-4----6-6-6-6-]   strum after the 2nd lot of 
E[------------2-2-2-2---------------4-4-4-4-]   chords

Pre-Chorus-I dont know what to call it...
e[----------------------------------------------]  
B[----------------------------------------------]  
G[-3-3-3-3----6-6-6-6----8-8-8-8----10-10-10-10-]  
D[-3-3-3-3----6-6-6-6----8-8-8-8----10-10-10-10-]x2  
A[-1-1-1-1----4-4-4-4----6-6-6-6----8--8--8--8--]   
E[----------------------------------------------]

Chorus
e[------------------------------------------]  
B[------------------------------------------]  
G[-3-3-3-3----6-6-6-6-----------------------]  
D[-3-3-3-3----6-6-6-6----4-4-4-4----6-6-6-6-]x4 This chrous doesnt have the
A[-1-1-1-1----4-4-4-4----4-4-4-4----6-6-6-6-]   extra 2 bits after it 
E[-----------------------2-2-2-2----4-4-4-4-]   because of the bridge.

Bridge  
*There is 16 lots of strumming for the first 2 chords and last chord*      
e[------------------------------------------------------------------]  
B[------------------------------------------------------------------]  
G[-3--------------------------------6---------3---------------------]  
D[-3----------4----------6----------6---------3---------------------]x2
A[-1----------4----------6----------4---------1---------------------]  
E[------------2----------4------------------------------------------] 


Sorry I havent yet worked out the solo but here are the chords Im hoping to upload it shortly.
e[------------------------------------------]  
B[------------------------------------------]  
G[-3-3-3-3----6-6-6-6-----------------------]  
D[-3-3-3-3----6-6-6-6----4-4-4-4----6-6-6-6-]x2
A[-1-1-1-1----4-4-4-4----4-4-4-4----6-6-6-6-]  
E[-----------------------2-2-2-2----4-4-4-4-]

Chorus
e[------------------------------------------]  
B[------------------------------------------]  
G[-3-3-3-3----6-6-6-6-----------------------]  
D[-3-3-3-3----6-6-6-6----4-4-4-4----6-6-6-6-]x6 
A[-1-1-1-1----4-4-4-4----4-4-4-4----6-6-6-6-]  
E[-----------------------2-2-2-2----4-4-4-4-]

The last 2 bits of the last chorus continues and fades or it can end if you would like :)

Comments are welcomed, please let me know if it is not right and I will 
fix it! I find it sounds better playing like this the dropping your E 
to a D and playing different chords.

ENJOY! 
Cheers :)
comments
We did not receive enough feedback on this tab! Please rate:
print report bad tab
1 2 3 4 5
I want to post or [tab]
guest
You may want to rate the tab now too:
select rating
Please do not post tabs as comments. Select "correction" instead!