Oops, an error
Loading. Please wait.

Here We Go Again Tab

version 1
version 1

Live

Whole song

Interactive

3,917 views 1 this week
2 commentsread comments
1 2 3 4 5
please rate
add to favorites
launch autoscroll
font size
0
reset
how to read this tab
guitar tuner
Autoscroll
slow
fast
+/-
esc
set tempo
stop
Help us to improve Ultimate-Guitar.com Take our survey!
×
Author
Tuning
Tabbers playing skills
doobidoo 8,830
D# G# C# F# A# D#
advanced +
PLS LIKE OUR BAND FAN PAGE @ FACEBOOK - https://www.facebook.com/SinceAstrid

Tabbed By Francis Twister
From Paramore Philippines(PARAWHORE)


Intro -

GtrI
eb|----------------------------------------------------------------------------|
bb|----------------------------------------------------------------------------|
gb|--16-16--11-11/13---9--8—8/9/8---/16-16--11-11/13---9--8--4--4--6--6---4/6--|
db|----------------------------------------------------------------------------|
ab|--14-14--9--9/11----7--6—6/7/6---/14-14--9--9/11----7--6--2--2--4--4---2/4--|
Db|----------------------------------------------------------------------------|

Verse 1

eb|--------------------------------------|
bb|---9---10--12--12--12--12--12--12-----|(3x)
gb|-----9----9---9---9---9---9---9-------|
db|--------------------------------------|
ab|--------------------------------------|
Db|--------------------------------------|

Then

eb|--------------------------------------|
bb|---9---10--12--12--10--10--12--12--12-|(3x)
gb|-----9----9---9---9---9---9---9---9---|
db|--------------------------------------|
ab|--------------------------------------|
Db|--------------------------------------|


Chorus 

eb|----------------------------------------------12-12-12-12-11-11-11-11-11-11-11-11-11-11-11-11-|
b-9-9-9-9-10-10-10-10--12-12-12-12-10-10--9-9--9--9--9--9--9--9--9--9--9--9--9--9--9--9--9--9--|
gb|-9-9-9-9-9--9--9--9---9--9--9--9---9--9--9-9--9--9--9--9--9--9--9--9--9--9--9--9--9--9--9--9--|
db|----------------------------------------------------------------------------------------------|
ab|----------------------------------------------------------------------------------------------|
Db|----------------------------------------------------------------------------------------------|
(x3)

Then
eb|----------------------------------------------12-12-12-12-11-11-11-11-11-11-11-11-11-11-11-11-|
bb|-9-9-9-9-10-10-10-10--12-12-12-12-10-10--9-9--9--9--9--9--9--9--9--9--12-12-12-12-12-12-12-12-|
gb|-9-9-9-9-9--9--9--9---9--9--9--9---9--9--9-9--9--9--9--9--9--9--9--9--9--9--9--9--9--9--9--9--|
db|----------------------------------------------------------------------------------------------|
ab|----------------------------------------------------------------------------------------------|
Db|----------------------------------------------------------------------------------------------|

Then (same as intro)

eb|--------------------------------|
bb|--------------------------------|
gb|--16-16--11-11/13---9--8—8/9/8--|
db|--------------------------------|(x2)
ab|---14-14--9--9/11----7--6—6/7/6--|
Db|--------------------------------|


eb|-------------------------------------------|
bb|-------------------------------------------|
gb|--16-16--11-11/13---9--8--4--4--6--6---4/6-|
db|-------------------------------------------|
ab|--14-14--9--9/11----7--6--2--2--4--4---2/4-|
Db|-------------------------------------------|

do Verse 2
Chorus

Bridge (starts with intro riff)

eb|----------------------------------------------------------------------|
bb|----------------------------------------------------------------------|
gb|--16-16--11-11/13---9--8—8/9/8-----16-16--11-11/13---9--8--4--4--6--6-|
db|----------------------------------------------------------------------|
ab|--14-14--9--9/11----7--6—6/7/6-----14-14--9--9/11----7--6--2--2--4--4-|
Db|----------------------------------------------------------------------|

eb|-----------------------------------------------------------------------|
bb|-----------------------------------------------------------------------|
gb|--16-16--11-11/13---9--8—8/9/8-----16-16--11-11/13---9-9-9-9-8-8-8-8-8-|
db|-----------------------------------------------------------------------|
ab|--14-14--9--9/11----7--6—6/7/6-----14-14--9--9/11----7-7-7-7-6-6-6-6-6-|
Db|-----------------------------------------------------------------------|

eb|---------------------------------------------------------------------------|
Bb|--9-9-9-7-7-9-9-7--9-9-9-7-7-9-9-7--9-9-9-7-7-9-9-7--12-12-10-10-9-9-------|
Gb|--9-9-9-8-8-9-9-8--9-9-9-8-8-9-9-8--9-9-9-8-8-9-9-8--11-11--9--9-9-9-------|
Db|---------------------------------------------------------------------------|
Ab|---------------------------------------------------------------------------|
Eb|---------------------------------------------------------------------------|

eb|---------------------------------------------------------------------------|
Bb|--9-9-9-7-7-9-9-7--9-9-9-7-7-9-9-7--9-9-9-7-7-9-9-7------------------------|
Gb|--9-9-9-8-8-9-9-8--9-9-9-8-8-9-9-8--9-9-9-8-8-9-9-8--9-9-9-9-8-8-8-8-------|
Db|---------------------------------------------------------------------------|
Ab|---------------------------------------------------------------------------|
Eb|---------------------------------------------------------------------------|


Do Chorus

Chords
For GtrII
Intro: A C#m x2

Outro


----21-------------21-------------21-------------------------|
----------21-------------21--------------21-----19----19-----| (x3)
------18------18-----18------18------18-----18------18----18-|
-------------------------------------------------------------|
-------------------------------------------------------------|

----21-------------21-------------21-----------------------------|
----------21-------------21--------------21-----19----19-----17--| 
------18------18-----18------18------18-----18------18----18-----|let ring
-----------------------------------------------------------------|
-----------------------------------------------------------------|


A                   C#m
 And here we go again
                          A
With all the things we said
                     C#m
And not a minute spent
                        A
To think that we'd regret
                      C#m
So we just take it back
                              A
These words and hold our breath
           C#m               A
Forget the things we swore we meant


Chorus:
C#m                             A                     C#m
 I'll write you just to let you know that I'm alright
              G#m            A
Can't say I'm sad to see you go
            C#m           A
Cause I'm not. Well, I'm not.

C#m G#m A
 A  C#m

A                    C#m
 And here we go again
                        A
With all the things we did
                     C#m
And now I'm wondering
                       A
Just who would I have been
                       C#m
To be the one attached
                      A
At all times to your hip
           C#m               A
Forget the things we swore we meant


Chorus:
C#m                             A                    C#m
 I'll write you just to let you know that I'm alright
              G#m            A
Can't say I'm sad to see you go
            C#m           A     C#m  G#m  A
Cause I'm not. Well, I'm not. Ooh

A C#m x2(palm mute)
A    C#m    A    C#m   (break)


A  C#m                          A                   C#m
      I'll write you to let you know that I'm alright
                            A
Can't say I'm sad to see you go
          C#m
Cause I'm not (I'm not)
           A
Well, I'm not (I'm not)
     C#m   G#m A
I'm not, I'm   not.
Suggest correction
What's this?
You can suggest a correction to this tab. Community and Mods will review your correction and vote to approve or reject it.
comments
We did not receive enough feedback on this tab! Please rate:
print report bad tab
1 2 3 4 5
2 comments total.
0 reply
Xb4mvluvrX 276 wrote on December 28 2008, 08:20 pm

the song isnt in drop c# its drop d

0 reply
doobidoo 8,830 wrote on December 29 2008, 04:37 am

this is their version in their final riot tour...all the songs are played in dropped c#..

guest
You may want to rate the tab now too:
select rating
Please do not post tabs as comments. Select "correction" instead!