Oops, an error
Loading. Please wait.

Here We Go Again Tab

version 4
version 4

Whole song

Interactive

3,439 views 1 this week
no commentswrite comment
1 2 3 4 5
please rate
add to favorites
launch autoscroll
font size
0
reset
how to read this tab
guitar tuner
Tab Pro tools
  • play this tab
  • loop segment
  • change instrument
  • show fretboard
  • metronome
×
Best way to learn
"Here We Go Again"
Autoscroll
slow
fast
+/-
esc
set tempo
stop
Contributor
This is my first tab, so forgive any mistakes please
im missing the guitar parts for some bits, but the rest is good 

Title: Here We Go Again
Artist: Paramore
Album: All We Know Is Falling
By Andy Robinson

Intro
E-------------------------------------------------------|
B--12-12------------------12-12-------------------------|
G--x--x--7-13-9-8-8-8/9/8-x--x--7-13-9-8----------------|
D--9--9--x-x--x-x-x-x-x-x-9--9--x-x--x-x-9-9/11-11-9/11-|
A--------9-11-7-6-6-6/7/6-------9-11-7-6-x-x-x--x--x-x--|
E----------------------------------------7-7/9--9--7/9--|

Verse


Guitar 1:

E-----------------------------------------------|
B-----------------------------------------------|
G--2-2-2-2-6-6-6-6------------------------------|
D--2-2-2-2-6-6-6-6------------------------------| X4
A--0-0-0-0-4-4-4-4------------------------------|
E-----------------------------------------------|

Guitar 2:

E-----------------------------------------------|
B--9---10---12---12---12---12---12---12---------|
G----9----9----9----9----9----9----9----9-------|X4
D-----------------------------------------------|
A-----------------------------------------------|
E-----------------------------------------------|


Chorus

Guitar 1:

E-----------------------------------------------|
B-----------------------------------------------|
G--2---------6--------8-------------------------|X4
D--2-(x16)---6-(x8)---8-(x8)--------------------|
A--0---------4--------6-------------------------|
E-----------------------------------------------|

Pre-Verse

E------------------------------------------------------------|
B--12-12-----------------------12-12-------------------------|
G--x--x--7-13-9-8-8-8/9/8------x--x--7-13-9-8----------------|
D--9--9--x-x--x-x-x-x-x-x-(X2)-9--9--x-x--x-x-9-9/11-11-9/11-|
A--------9-11-7-6-6-6/7/6------------9-11-7-6-x-x-x--x--x-x--|
E---------------------------------------------7-7/9--9--7/9--|

Verse


Guitar 1:

E-----------------------------------------------|
B-----------------------------------------------|
G--2-2-2-2-6-6-6-6------------------------------|
D--2-2-2-2-6-6-6-6------------------------------| X4
A--0-0-0-0-4-4-4-4------------------------------|
E-----------------------------------------------|

Guitar 2:

E-----------------------------------------------|
B--9---10---12---12---12---12---12---12---------|
G----9----9----9----9----9----9----9----9-------|X4
D-----------------------------------------------|
A-----------------------------------------------|
E-----------------------------------------------|


Chorus

Guitar 1:

E-----------------------------------------------|
B-----------------------------------------------|
G--2---------6--------8-------------------------|X4
D--2-(x16)---6-(x8)---8-(x8)--------------------|
A--0---------4--------6-------------------------|
E-----------------------------------------------|

Solo

E--------------------------------------------------|
B--12-12------------------12-12--------------------|
G--x--x--7-13-9-8-8-8/9/8-x--x--7-13-9-8-----------|
D--9--9--x-x--x-x-x-x-x-x-9--9--x-x--x-x-9-9/11-11-|
A--------9-11-7-6-6-6/7/6-------9-11-7-6-x-x-x--x--|
E----------------------------------------7-7/9--9--|

E---------------------------------------------------|
B-12-12------------------12-12----------------------|
G-x--x--7-13-9-8-8-8/9/8-x--x--7-13-9-9-9-9-8-8-8-8-|
D-9--9--x-x--x-x-x-x-x-x-9--9--x-x--x-x-x-x-x-x-x-x-|
A-------9-11-7-6-6-6/7/6-------9-11-7-7-7-7-6-6-6-6-|
E---------------------------------------------------|

E-------------------------7-7-----------------------|
B--9-9-9-7-7-9-9-7--(x3)--9-9---10-10-9-9-----------|
G--9-9-9-9-9-9-9-9--------------9--9--9-9-----------|
D---------------------------------------------------|
A---------------------------------------------------|
E---------------------------------------------------|

Chorus
                                         
E-----------------------------------------------|
B-----------------------------------------------|
G--2---------6--------8-------------------------|X4
D--2-(x16)---6-(x8)---8-(x8)--------------------|
A--0---------4--------6-------------------------|
E-----------------------------------------------|

Outro

E---------------------------------------|
B---------------------------------------|
G--2-2-2-2-2-2-2-2-6-6-6-6-6-6-6-6------|
D--2-2-2-2-2-2-2-2-6-6-6-6-6-6-6-6-(X3)-|
A--0-0-0-0-0-0-0-0-4-4-4-4-4-4-4-4------|
E---------------------------------------|

E---------------------------------------|
B---------------------------------------|
G--2-2-2-2-2-2-2-2--6-------8------2----|
D--2-2-2-2-2-2-2-2--6-(X8)--8-(X8)-2----|
A--0-0-0-0-0-0-0-0--4-------6------0----|
E---------------------------------------|
comments
We did not receive enough feedback on this tab! Please rate:
print report bad tab
1 2 3 4 5
I want to post or [tab]
guest
You may want to rate the tab now too:
select rating
Please do not post tabs as comments. Select "correction" instead!