Oops, an error
Loading. Please wait.

Here We Go Again Tab

version 5
version 5

Whole song

Interactive

34,074 views 9 this week
3 commentsread comments
1 2 3 4 5
excellent!
x 8
add to favorites
launch autoscroll
font size
0
reset
how to read this tab
guitar tuner
Autoscroll
slow
fast
+/-
esc
set tempo
stop
Help us to improve Ultimate-Guitar.com Take our survey!
×
Author
Difficulty
Tuning
novice
D A D G B E
-------------------------------------------------------------------------------
                             HERE WE GO AGAIN - Paramore
-------------------------------------------------------------------------------
Tabbed by: Rockett97    
Email: rockett97@hotmail.com

Hey guys, Please rate this tab and give comments, it's my first one so im anxious to learn!
Thanks, and i hope it's helpful;)

Paramore - Here we go again, lead guitar

Tuning: drop D


Intro 

e------------------------------------------------------------------------------|
b------------------------------------------------------------------------------|
g----16-16--11-11/13---9--8—8/9/8---/16-16--11-11/13---9--8--4--4--6--6---4/6--|
d------------------------------------------------------------------------------|
a----14-14--9--9/11----7--6—6/7/6---/14-14--9--9/11----7--6--2--2--4--4---2/4--|
D------------------------------------------------------------------------------|

Verse 1

e-------4---5---7---7---7---7---7---7----|
b---------5---5---5---5---5---5---5---5--|(3x)
g----------------------------------------|
d----------------------------------------|
a----------------------------------------|
D----------------------------------------|

Then

e------4---5---7---7---5---5---4---4-----|
b--------5---5---5---5---5---5---5---5---|
g----------------------------------------|
d----------------------------------------|
a----------------------------------------|
D----------------------------------------|

Chorus 

e----------------------------------------------12-12-12-12-11-11-11-11-11-11-11-11-11-11-11-11-|
b-9-9-9-9-10-10-10-10--12-12-12-12-10-10--9-9--9--9--9--9--9--9--9--9--9--9--9--9--9--9--9--9--|
g-9-9-9-9-9--9--9--9---9--9--9--9---9--9--9-9--9--9--9--9--9--9--9--9--9--9--9--9--9--9--9--9--|
d----------------------------------------------------------------------------------------------|
a----------------------------------------------------------------------------------------------|
D----------------------------------------------------------------------------------------------|
(x3)

Then
e----------------------------------------------12-12-12-12-11-11-11-11-11-11-11-11-11-11-11-11-|
b-9-9-9-9-10-10-10-10--12-12-12-12-10-10--9-9--9--9--9--9--9--9--9--9--12-12-12-12-12-12-12-12-|
g-9-9-9-9-9--9--9--9---9--9--9--9---9--9--9-9--9--9--9--9--9--9--9--9--9--9--9--9--9--9--9--9--|
d----------------------------------------------------------------------------------------------|
a----------------------------------------------------------------------------------------------|
D----------------------------------------------------------------------------------------------|

Then (same as intro)

e ---------------------------------|
b----------------------------------|
g----16-16--11-11/13---9--8—8/9/8--|
d----------------------------------|(x2)
a----14-14--9--9/11----7--6—6/7/6--|
D----------------------------------|


e --------------------------------------------|
b---------------------------------------------|
g----16-16--11-11/13---9--8--4--4--6--6---4/6-|
d---------------------------------------------|
a----14-14--9--9/11----7--6--2--2--4--4---2/4-|
D---------------------------------------------|

Verse 2

e------4---5---7---7---7---7---7---7----|
b--------5---5---5---5---5---5---5---5--|(3x)
g---------------------------------------|
d---------------------------------------|
a---------------------------------------|
D---------------------------------------|

Then

e------4---5---7---7---5---5---4---4----|
b--------5---5---5---5---5---5---5---5--|
g---------------------------------------|
d---------------------------------------|
a---------------------------------------|
D---------------------------------------|

Chorus 

e ----------------------------------------------12-12-12-12-11-11-11-11-11-11-11-11-11-11-11-11-|
b-9-9-9-9-10-10-10-10--12-12-12-12--10-10--9-9--9--9--9--9--9--9--9--9--9--9--9--9--9--9--9--9-|
g-9-9-9-9--9--9--9--9---9--9--9--9---9--9--9-9--9--9--9--9--9--9--9--9--9--9--9--9--9--9--9--9--|
d-----------------------------------------------------------------------------------------------|
a-----------------------------------------------------------------------------------------------|
D-----------------------------------------------------------------------------------------------|
(x3)

Then
e ---------------------------------------------12-12-12-12-11-11-11-11-11-11-11-11-11-11-11-11--|
b-9-9-9-9-10-10-10-10--12-12-12-12-10-10--9-9--9--9--9--9--9--9--9--9--12-12-12-12-12-12-12-12--|
g-9-9-9-9--9--9--9--9---9--9--9--9--9--9--9-9--9--9--9--9--9--9--9--9--9--9--9--9--9--9--9--9---|
d-----------------------------------------------------------------------------------------------|
a-----------------------------------------------------------------------------------------------|
D-----------------------------------------------------------------------------------------------|

Bridge (starts with intro riff)

e -----------------------------------------------------------------------|
b------------------------------------------------------------------------|
g----16-16--11-11/13---9--8—8/9/8-----16-16--11-11/13---9--8--4--4--6--6-|
d------------------------------------------------------------------------|
a----14-14--9--9/11----7--6—6/7/6-----14-14--9--9/11----7--6--2--2--4--4-|
D------------------------------------------------------------------------|

e ------------------------------------------------------------------------|
b-------------------------------------------------------------------------|
g----16-16--11-11/13---9--8—8/9/8-----16-16--11-11/13---9-9-9-9-8-8-8-8-8-|
d-------------------------------------------------------------------------|
a----14-14--9--9/11----7--6—6/7/6-----14-14--9--9/11----7-7-7-7-6-6-6-6-6-|
D-------------------------------------------------------------------------|

e|---------------------------------------------------------------------------|
B|--9-9-9-7-7-9-9-7--9-9-9-7-7-9-9-7--9-9-9-7-7-9-9-7--12-12-10-10-9-9-------|
G|--9-9-9-8-8-9-9-8--9-9-9-8-8-9-9-8--9-9-9-8-8-9-9-8--11-11--9--9-9-9-------|
D|---------------------------------------------------------------------------|
A|---------------------------------------------------------------------------|
E|---------------------------------------------------------------------------|

e|---------------------------------------------------------------------------|
B|--9-9-9-7-7-9-9-7--9-9-9-7-7-9-9-7--9-9-9-7-7-9-9-7------------------------|
G|--9-9-9-8-8-9-9-8--9-9-9-8-8-9-9-8--9-9-9-8-8-9-9-8--9-9-9-9-8-8-8-8-------|
D|---------------------------------------------------------------------------|
A|---------------------------------------------------------------------------|
E|---------------------------------------------------------------------------|


Chorus

e ----------------------------------------------12-12-12-12-11-11-11-11-11-11-11-11-11-11-11-11-|
b9-9-9-9-10-10-10-10--12--12-12-12--10-10---9-9--9--9--9--9--9--9--9--9--9--9--9--9--9--9--9--9|
g9-9-9-9--9--9--9--9---9--9--9--9---9--9----9-9--9--9--9--9--9--9--9--9--9--9--9--9--9--9--9--9-|
d-----------------------------------------------------------------------------------------------|
a-----------------------------------------------------------------------------------------------|
D-----------------------------------------------------------------------------------------------|
(x3)




Then
e ----------------------------------------------12-12-12-12-11-11-11-11-11-11-11-11-11-11-11-11--|
b-9-9-9-9-10-10-10-10--12-12-12-12-10-10---9-9---9--9--9--9--9--9--9--9-12-12-12-12-12-12-12-12--|
g-9-9-9-9- 9--9--9--9--9--9--9--9---9--9---9-9---9--9--9--9--9--9--9--9--9--9--9--9--9--9--9--9--|
d------------------------------------------------------------------------------------------------|
a------------------------------------------------------------------------------------------------|
D------------------------------------------------------------------------------------------------|

Outro

e----21-------------21-------------21-------------------------|
b----------21-------------21--------------21-----19----19-----| (x3)
g------18------18-----18------18------18-----18------18----18-|
a-------------------------------------------------------------|
D-------------------------------------------------------------|

e----21-------------21-------------21-----------------------------|
b----------21-------------21--------------21-----19----19-----17--| 
g------18------18-----18------18------18-----18------18----18-----|let ring
a-----------------------------------------------------------------|
D-----------------------------------------------------------------|


| /  slide up
| \  slide down
| h  hammer-on
| p  pull-off
| ~  vibrato
| +  harmonic
| x  Mute note
===============================================================================
Suggest correction
What's this?
You can suggest a correction to this tab. Community and Mods will review your correction and vote to approve or reject it.
comments
print report bad tab
3 comments total.
0 reply
killthedirector 18 wrote on December 17 2008, 12:27 pm

Dude! This is like, the best tab yet i've seen online for this song:D
5* totally worth it;)
thanks

0 reply
~coloradorockr~ 53 wrote on July 18 2009, 04:15 pm

Great tab! Could you post the rhythm guitar too???

0 reply
BankeA 17 wrote on February 27 2010, 04:39 am

Awesome bro'.

guest
You may want to rate the tab now too:
select rating
Please do not post tabs as comments. Select "correction" instead!