Oops, an error
Loading. Please wait.

I Caught Myself Tab

version 1
version 1

Interactive

138,124 views 51 this week
7 commentsread comments
1 2 3 4 5
x 12
add to favorites
launch autoscroll
font size
0
reset
how to read this tab
guitar tuner
Autoscroll
slow
fast
+/-
esc
set tempo
stop
Help us to improve Ultimate-Guitar.com Take our survey!
×
Author
I Caught Myself - Paramore

 {Guitar 1}
 [INTRO/Verse]
e|-----------------------|
B|-9----9----12----12----|
G|--9----9------------9--|
D|---11---11----11-------|
A|-----------------------|
E|-----------------------| Lots of times

 [Chorus 1]
e|-16------16------19---19----|
B|---17------17-----------17--|
G|------18-----18----18-------|
D|----------------------------|
A|----------------------------|
E|----------------------------| Lots of times

 [Verse 2]
e|-----------------------|
B|-9----9----12----12----|
G|--9----9------------9--|
D|---11---11----11-------|
A|-----------------------|
E|-----------------------| Lots of times

 [Chorus 2]
e|-16------16------19---19----|
B|---17------17-----------17--|
G|------18-----18----18-------|
D|----------------------------|
A|----------------------------|
E|----------------------------| Lots of times

 [Solo]
e|-------------------|
B|-5------5----5-----|
G|-4------4----4-----|
D|--(x16)--(x8)-(x8)-|
A|-0------4----------|
E|-------------0-----|

e|----------------|
B|-5------5----5--|
G|-4------4----4--|
D|--(x16)--(x8)---|
A|-0--------------|
E|--------2----0--|

 [Bridge]
e|------------|
B|-5-----5----|
G|-4-----4----|
D|------------| x2
A|-0-----4----|
E|------------|

e|-16------16------19---19----|
B|---17------17-----------17--|
G|------18-----18----18-------|
D|----------------------------|
A|----------------------------|
E|----------------------------| as needed

e|-x-x-x-x-x-x-x-x-|
B|-x-x-x-x-x-x-x-x-|
G|-x-x-x-x-x-x-x-x-|
D|-----------------|
A|-----------------|
E|-----------------|

 [Final Chorus]
e|-------------------------|
B|-------------------------|
G|-------------6-----2-----|
D|-2-----4-----6(x8)-2(x8)-|
A|-2(x8)-4(x8)-4-----0-----|
E|-2-----4-----------------|

e|----------------------------|
B|----------------------------|
G|-------------6-----4--------|
D|-2-----4-----6(x8)-4(x5)----|
A|-2(x8)-4(x8)-4-----2--------|
E|-2-----4----------------12/-|

e|-------------------------|
B|-------------------------|
G|-------------6-----2-----|
D|-2-----4-----6(x8)-2(x8)-|
A|-2(x8)-4(x8)-4-----0-----|
E|-2-----4-----------------|

e|-------------------------|
B|-------------------------|
G|-------------6-----4-----|
D|-2-----4-----6(x8)-4(x5)-|
A|-2(x8)-4(x8)-4-----2-----|
E|-2-----4-----------------|
______________________________________________________________________

 {Guitar 2}
 [INTRO/Verse] (Thanks to doobidoo for finding a easier way to play this)
e|-------2-------2-------5-----4-------2--|
B|---2-------2-------2-----2------2-------|
G|-4---4---4---4---4---4-----4------4-----|
D|----------------------------------------|
A|----------------------------------------|
E|----------------------------------------|

e|-------2---------------2----------------5------4-------4-------|
B|---2-----2---2-----2-----2---2------2-----2-------2------2--2--|
G|-4---4-----4----4----4-----4------4---4-----4-------4-----4----|
D|---------------------------------------------------------------|
A|---------------------------------------------------------------|
E|---------------------------------------------------------------|
Repeat the second part as much as needed

 [Chorus 1]
e|-------2---------------2----------------5------4-------4-------|
B|---2-----2---2-----2-----2---2------2-----2-------2------2--2--|
G|-4---4-----4----4----4-----4------4---4-----4-------4-----4----|
D|---------------------------------------------------------------|x4
A|---------------------------------------------------------------|
E|---------------------------------------------------------------|

 [Verse 2] starts at the same time Hayley sings (Hypnotic)
e|---------5-5-4-4|
B|-2-2-2-2-2-2-2-2|
G|-1-1-1-1--------|
D|----------------|
A|----------------|
E|----------------|

e|-------------------------|
B|-2-2-2-2-2-2-2-2-2-2-2-2-|
G|-1-1-1-1-1-1-1-1-1-1-1-1-|
D|-------------------------|
A|-------------------------|
E|-------------------------|

e|---|
B|-5-|
G|-4-|
D|---|
A|-2-|
E|---|

 [Chorus 2]
 but when i caught myself...
e|-------2---------------2----------------5------4-------4-------|
B|---2-----2---2-----2-----2---2------2-----2-------2------2--2--|
G|-4---4-----4----4----4-----4------4---4-----4-------4-----4----|
D|---------------------------------------------------------------|
A|---------------------------------------------------------------|
E|---------------------------------------------------------------|
x4

[Solo]
There are two ways to play the solo, in the studio version there are
3 guitars playing (idk i might be wrong tho), Josh plays something and
then Guitar 3 plays in the back ground, this is what Josh plays

e|---------------------------|
B|-9-10-9---------9-10-9-----|
G|--------9-11-----------9---| x2
D|-------------------------9-|
A|---------------------------|
E|---------------------------|

And the other way is playing both guitars at the same time

e|-------------------------------------------|
B|-9-10-9-----------9-10-9-------------------|
G|-9-9--9-9-11(x16)-9-9--9-9(x8)-9(x4)-9(x4)-|
D|--------9-9--------------9-----7-----6-----|
A|-------------------------------------------|
E|-------------------------------------------|

e|----------------------------|
B|-9-10-9-----------9-10-9----|
G|-9-9--9-9-11(x16)-9-9--9-9~-|
D|--------9-9--------------9~-|
A|----------------------------|
E|----------------------------|

 [Bridge]
e|---------------------------|
B|-9-10-9---------9-10-9-----|
G|--------9-11-----------9---| x2
D|-------------------------9-|
A|---------------------------|
E|---------------------------|

 Listen carefully for this
e|-12-12-12-12-12-12-12-12-|
B|-------------------------|
G|-------------------------|
D|-------------------------|
A|-------------------------|
E|-------------------------|

e|-x-x-x-x-x-x-x-x-|
B|-x-x-x-x-x-x-x-x-|
G|-x-x-x-x-x-x-x-x-|
D|-----------------|
A|-----------------|
E|-----------------|

 [Final Chorus]
e|-------------------------|
B|-------------------------|
G|-------------6-----2-----|
D|-2-----4-----6(x8)-2(x8)-|
A|-2(x8)-4(x8)-4-----0-----|
E|-2-----4-----------------|

e|-------------------------|
B|-------------------------|
G|-------------6-----8-----|
D|-2-----4-----6(x8)--(x5)-|
A|-2(x8)-4(x8)-4-----6-----|
E|-2-----4-----------------|

e|--------------------------------------|
B|-9---(x4)-7---(x4)-9---(x4)-10---(x4)-|
G|---9--------9--------9---------9------|
D|--------------------------------------|
A|--------------------------------------|
E|--------------------------------------|

e|-------------------------------------|
B|-9---(x4)-7---(x4)-12---(x4)-10-(x5)-|
G|---9--------9--------9--------9------|
D|-------------------------------------|
A|-------------------------------------|
E|-------------------------------------|
_____________________________________________________________
{Guitar 3}

 [Verse 2]
 an acoustic guitar plays some chords
 i can't realy figure out but let's pretend
 it's just playing the bass chords rofl
e|-------------------|
B|-------------------|
G|-2-----------------| x2
D|-2(x16)-4-----2----|
A|-0------4(x8)-2(x8)|
E|--------4-----2----|

 [Chorus 2]
e|-----------------------------|
B|-----------------------------|
G|-----------------------------|
D|-----------------------------| x2
A|-14(x16)-12(x8)-11(x4)-7(x4)-|
E|-----------------------------|

e|------------------------------------|
B|------------------------------------|
G|------------------------------------|
D|------------------------------------|
A|-14(x14)-16(x2)-12(x8)-11(x4)-7(x4)-|
E|------------------------------------|

e|-----------------------------|
B|-----------------------------|
G|-----------------------------|
D|-----------------------------| x2
A|-14(x16)-12(x8)-11(x4)-7(x4)-|
E|-----------------------------|

 [Solo]
 you know you can play it the 2 guitars way or the one guitar way
 but for the 2 guitars one this is what the 3rd guitar plays
e|----------------------------------------|
B|----------------------------------------|
G|-9(x8)-11(x24)--9(x8)-------------------|
D|----------------------9(x8)-7(x8)-6(x8)-|
A|----------------------------------------|
E|----------------------------------------|

 Build Up?: this plays when the first guitar starts playing the
 chorus riff
e|--------------------------------------|
B|--------------------------------------|
G|-2------6-----------2-----------------|
D|-2(x16)-6(x8)-2-----2(x16)-4-----2----|
A|-0------4-----2(x8)-0------4(x8)-2(x8)|
E|--------------2------------4-----2----|

Thats all
WOOOOO FUQ YEAH I CAN PLAY I CAUGHT MYSELF BY PARAMORE

************************************

| x  Dead note
| /  Slide up
| ~  Vibrato

************************************
Suggest correction
comments
print report bad tab
7 comments total. Showing first comments.
0 reply
firefox385 74 Nov 16, 2008 01:56 AM

very good tab. you just have to clean it up a bit

0 reply
doobidoo 5,838 Dec 12, 2008 10:45 PM

i think it's better to play this:
|-------2---------------2----------------5------4-------2-----------------|
|---2-----2---2-----2-----2---2------2-----2-------2------2--2------------|
|-4---4-----4----4----4-----4------4---4-----4-------4-----4--------------|
|-------------------------------------------------------------------------|
|-------------------------------------------------------------------------|
|-------------------------------------------------------------------------|

thaN
|-------------------------------------------------------------------------|
|-----------------------------------------------10------9------9----------|
|--------11-----------------11--------------------------------------------|
|-9-11-9-----11-9-11-9-11-9------11-9-11-9-11-9----11-9---11-9----11-9-11-|
|-------------------------------------------------------------------------|
|-------------------------------------------------------------------------|

IT SOUNDS BETTER BY THE WAY,,,AND EASIER

0 reply
doobidoo 5,838 Dec 12, 2008 10:51 PM

ON
3:15TH PART
|-12-12-12-12-12-12-12-12-|
|-------------------------|
|-------------------------|
|-------------------------|
|-------------------------|
|-------------------------|

IT'S LIKE
THIS

|-141414141414141414141414141414-1212121212121212-------------------|
|-------------------------------------------------------------------|
|-------------------------------------------------------------------|
|--------------------------------------------------14-1414-14-1414--|
|--------------------------------------------------X-X-X-X-X-X-X--X-|
|-------------------------------------------------------------------|

guest
You may want to rate the tab now too:
select rating
Wanna post a correction for this tab? Suggest correction