Oops, an error
Loading. Please wait.

I Caught Myself Tab

version 2
version 2

Interactive

27,850 views 3 this week
1 commentread comment
1 2 3 4 5
accurate
x 4
add to favorites
launch autoscroll
font size
0
reset
how to read this tab
guitar tuner
Autoscroll
slow
fast
+/-
esc
set tempo
stop
Help us to improve Ultimate-Guitar.com Take our survey!
×
This is what I've got so far. There may be a few mistakes, but I think it sounds pretty 
at the moment.
If you have any corrections, comments, or suggestions feel free to email me at 
spazza17_rox@hotmail.com

Song: I Caught Myself
Artist: Paramore
Album: Twilight Soundtrack
Year: 2008
Tuning: Standard

INTRO: Guitar 1

e---4-----4-----7---7-----|
B----5-5---5-5---5---5----|
G-------------------------|  x24
D-------------------------|
A-------------------------|
E-------------------------|

INTRO: Guitar 2 (0:08)

e------------------------------------5------4---------------|
B--------5--7~--------5--7~--------5---5------5----7~-------|
G--4--6---------4--6---------4--6--------6------6-----------|  x1
D-----------------------------------------------------------|
A-----------------------------------------------------------|
E-----------------------------------------------------------|


e--------------------------------------5----4----4----------|
B------5-7------------5-7------------5---5----5----5--------|
G--4-6-----6-4-6--4-6-----6-4-6--4-6-------6----6----4-6----|  x4
D-----------------------------------------------------------|
A-----------------------------------------------------------|
E-----------------------------------------------------------|

VERSE: Guitar 1 (0:49)

e--16--------16--------19-----19-----|
B-----17-17-----17-17-----17-----17--|
G------------------------------------|  x4
D------------------------------------|
A------------------------------------|
E------------------------------------|

CHORUS: Guitar 1 (0:57)

e--16--------16--------19-----19-----|
B-----17-17-----17-17-----17-----17--|
G------------------------------------|  x16
D------------------------------------|
A------------------------------------|
E------------------------------------|

CHORUS: Guitar 2 (0:57)

e--------------------------------------5----4----4----------|
B------5-7------------5-7------------5---5----5----5--------|
G--4-6-----6-4-6--4-6-----6-4-6--4-6-------6----6----4-6----|  x4
D-----------------------------------------------------------|
A-----------------------------------------------------------|
E-----------------------------------------------------------|

CHORUS: Guitar 3 (0:57)

e--------------------------------------------|
B--------------------------------------------|
G--2------6-------------2--------------------|
D--2-x24--6-x16--2------2-x24--4------2------|
A--0------4------2-x16--0------4-x16--2-x16--|
E----------------0-------------2------0------|

VERSE 2: Guitar 1 (1:31)

e--4--4--7--7--4--4--7--7--|
B--5--5--5--5--5--5--5--5--|
G--------------------------|  x4
D--------------------------|
A--------------------------|
E--------------------------|


VERSE 2: Guitar 2 (1:31)

e----------------------------------------------|
B----------------------------------------------|
G--9-9-9-9-9-9-9-9--13-13-13-13---16-16-16-16--|
D--x-x-x-x-x-x-x-x---x--x--x--x----x--x--x--x--|
A--7-7-7-7-7-7-7-7--11-11-11-11---14-14-14-14--|
E----------------------------------------------|

e-------------------------------------|
B-------------------------------------|
G--9-9-9-9-9-9-9-9--6-6-6-6--4-4-4-4--|
D--x-x-x-x-x-x-x-x--x-x-x-x--x-x-x-x--|
A--7-7-7-7-7-7-7-7--4-4-4-4--2-2-2-2--|
E-------------------------------------|

VERSE 2: Guitar 3

e--------------------------------------------|
B--------------------------------------------|
G--2------6-------------2--------------------|
D--2-x24--6-x16--2------2-x24--4------2------|
A--0------4------2-x16--0------4-x16--2-x16--|
E----------------0-------------2------0------|

PRE CHORUS: Guitar 1

e--16--------16--------19-----19-----|
B-----17-17-----17-17-----17-----17--|
G------------------------------------|  x4
D------------------------------------|
A------------------------------------|
E------------------------------------|

CHORUS 2: Guitar 1

e--16--------16--------19-----19-----|
B-----17-17-----17-17-----17-----17--|
G------------------------------------|  x15
D------------------------------------|
A------------------------------------|
E------------------------------------|

e--16-----16-----16-----16-----|
B-----17-----17-----17-----17--|
G------------------------------|  x1
D------------------------------|
A------------------------------|
E------------------------------|

CHORUS 2: Guitar 2

e--------------------------------------5----4----4----------|
B------5-7------------5-7------------5---5----5----5--------|
G--4-6-----6-4-6--4-6-----6-4-6--4-6-------6----6----4-6----|
D-----------------------------------------------------------|
A-----------------------------------------------------------|
E-----------------------------------------------------------|

SOLO: Guitar 1 (2:28)

e----------------------------------------------------|
B--9-10-9-5-777777777777---9-10-9-7-5----------------|
G-------------------------------------444-222-11111--|
D----------------------------------------------------|
A----------------------------------------------------|
E----------------------------------------------------|

e-------------------------------------------|
B--9-10-9-5-777777777777---9-10-9-7-5-------|
G-------------------------------------4444--|
D-------------------------------------------|
A-------------------------------------------|
E-------------------------------------------|

SOLO: Guitar 2

e--------------------------------------------|
B--------------------------------------------|
G--2------6-------------2--------------------|
D--2-x16--6-x8---2------2-x16--4------2------|
A--0------4------2-x8---0------4-x8---2-x8---|
E----------------0-------------2------0------|

BRIDGE: Guitar 1

e------------------------------|
B--9-10-9-5-7~----9-10-9-7-5~--|
G------------------------------|
D------------------------------|
A------------------------------|
E------------------------------|

BRIDGE: Guitar 2

e------------------|
B------------------|
G--2~--2~--2~--2~--|
D--2~--2~--2~--2~--|
A--0~--0~--0~--0~--|
E------------------|

Build up to last chorus with this..
e--------------------------------------------|
B--------------------------------------------|
G--2------6-------------2--------------------|
D--2-x16--6-x8---2------2-x16--4------2------|
A--0------4------2-x8---0------4-x8---2-x8---|
E----------------0-------------2------0------|

LAST CHORUS

e---------------------------------------------------|
B---------------------------------------------------|
G--------------6666--2222---------------6666--4444--|
D--2222--4444--6666--2222---2222--4444--6666--4444--|
A--2222--4444--4444--0000---2222--4444--4444--2222--|
E--0000--2222---------------0000--2222--------------|

e--------------------------------------------------------------------------------|
B--------------------------------------------------------------------------------|
G----------------------66666666--22222222-----------------------66666666--44444--|
D--22222222--44444444--66666666--22222222---22222222--44444444--66666666--44444--|
A--22222222--44444444--44444444--00000000---22222222--44444444--44444444--22222--|
E--00000000--22222222-----------------------00000000--22222222-------------------|
Suggest correction
comments
print report bad tab
1 comment total.
+1 reply
emilygooding03 10 wrote on November 10 2009, 07:12 pm

For the intro, instead of

e---4-----4-----7---7-----|
B----5-5---5-5---5---5----|

it should be

e---4--4--7--7----|
B----5--5--5--5---|
G-----6--6--------|

And for the chorus, just move 1 octave up, so the 4 on the high e string should be on the 16 on the high e.

guest
You may want to rate the tab now too:
select rating
Please do not post tabs as comments. Select "correction" instead!