Oops, an error
Loading. Please wait.

I Caught Myself Tab

version 5
version 5

Interactive

1,394 views 1 this week
no commentswrite comment
1 2 3 4 5
2 more votes to show rating
add to favorites
launch autoscroll
font size
0
reset
how to read this tab
guitar tuner
Autoscroll
slow
fast
+/-
esc
set tempo
stop
Help us to improve Ultimate-Guitar.com Take our survey!
×
Author
Difficulty
Band: Paramore
Song: I Caught Myself
Album: Twilight Soundtrack
Tabbed By: Matthew Florio, myspace.com/mattflorio2
Email: Shempashland@yahoo.com

This is my  tab for 'I Caught Myself'.
If you have any questions or anything contact me!


Intro
Guitar 1
*play e then b then g separate 
but in one whole strum going upward
e|--*44-77-----|
b|--*55-55-----|
g|--*66-66-----|
d|-------------|
a|-------------|
d|-------------|

Guitar 2
e|--------------------------------|
b|------------------------10-9----|
g|------9-11----9-11----9------11-|
d|--9-11----9-11----9-11----------|
a|--------------------------------|
d|--------------------------------|

*Verse/Chorus
*(when the lyrics come in)

Guitar 1
e|--*1616-1919-----|
b|--*1717-1717-----|
g|--*1818-xxxx-----|
d|-----------------|
a|-----------------|
d|-----------------|

Guitar 2 plays the Intro riff

Bridge
then this part comes: "you got it, you got it..."

Guitar 1 Intro riff

Guitar 2 
each chord (8x)
e|--0----0---0---0-|
b|--0----0---0---0-|
g|--9---13---9---6-|
d|--9---14---9---6-|
a|--7---11---7---4-|
d|--7---11---7---4-|

then

Guitar 1 
(played like the Intro riff)
e|--*1616-1919-----|
b|--*1717-1717-----|
g|--*1818-xxxx-----|
d|-----------------|
a|-----------------|
d|-----------------|

Chorus

Solo
Guitar 1
e|---------------------------------------|
b|---------------------------------------|
g|--13h14p13/11(12x)-13h14p13------------|
d|---------------------------99-77-66----|
a|---------------------------------------|
d|---------------------------------------|

continued
e|--------------------------------|
b|--------------------------------|
g|--13h14p13/11(12x)-13h14p13-----|
d|---------------------------9999-|
a|--------------------------------|
d|--------------------------------|

Guitar 2
e|--00000000----0-0-0-0-0-0-0-0-|
b|--00000000----0-0-0-0-0-0-0-0-|
g|--99999999---1313131313131313-|
d|--99999999---1414141414141414-|
a|--77777777---1111111111111111-|
d|--77777777---1111111111111111-|

Interlude
Guitar 1
slight delay
e|----------------------|
b|--9h10p9-----9h10p9---|
g|--------9h11-------9--|
d|--------------------9-|
a|----------------------|
d|----------------------|

Guitar 2
e|---0~----0~----|
b|---0~----0~----|
g|---9~---13~----|
d|---9~---14~----|
a|---7~---11~----|
d|---7~---11~----|

then 

Guitar 1 plays the riff from the Verse
Guitar 2 gradually palm mutes the Interlude chords

Guitar 3
gradually comes in
e|--12(12x)------------|
b|---------------------|
g|---------------------|
d|---------------------|
a|---------------------|
d|---------------------| 

Breakdown
Guitar 1
*the dead notes up near 2nd frets
e|--*xxxxxxxx-------------------------|
b|--*xxxxxxxx-------------------------|
g|--*xxxxxxxx-------------6666--------|
d|--*xxxxxxxx-2222--4444--6666--7777--|
a|--*xxxxxxxx-2222--4444--4444--7777--|
d|--*xxxxxxxx-2222--4444--------7777--|

Guitar 2
e|---------------------------------|
b|---------------------------------|
g|--9999--11111111-----------------|
d|--9999--11111111--11111111--7777-|
a|--7777--09090909--11111111--7777-|
d|------------------11111111--7777-|

the last time Guitar 2 plays the Breakdown
e|---------------------------------|
b|---------------------------------|
g|--9999--11111111------------9999-|
d|--9999--11111111--11111111--xxxx-|
a|--7777--09090909--11111111--7777-|
d|------------------11111111-------|

Last Chorus
Guitar 1
e|------------------------------|
b|------------------------------|
g|--9--6--13--8---9--8--16--888-|
d|--x--x---x--x---x--x---x--xxx-|
a|--7--4--11--6---7--6--14--666-|
d|------------------------------|


Guitar 2
e|----------------------------------------------000-|
b|----------------------------------------------555-|
g|--2222--------6666--------------------6666----666-|
d|--2222--4444--6666--7777--2222--4444--6666--7-666-|
a|--0000--4444--4444--7777--2222--4444--4444--7-444-|
d|--------4444--------7777--2222--4444--------7-----|
Suggest correction
Give kudos to tab author, rate the tab!
1 2 3 4 5
comments
print report bad tab
guest
You may want to rate the tab now too:
select rating
Wanna post a correction for this tab? Suggest correction