Oops, an error
Loading. Please wait.

Idle Worship tab

226 views 30 this week
1 commentread comment
1 2 3 4 5
2 more votes to show rating
add to favorites
×
Save as Personal and add changes to this tab that will be seen only by you. Learn more ›
×
You can save this tab as Personal to edit and correct it or add notes. All changes will be seen only by you. Learn more »
launch autoscroll
font size
0
reset
how to read this tab
guitar tuner
edit
Autoscroll
slow
fast
+/-
esc
set tempo
stop
About this tab version
Full guitar tab with mostly harmony parts to synth chords. Please rate or comment. Was this info helpful? Yes No
Paramore - Idle Worship
Tuning - Standard




[Verse]

   (0:24)  with fast chorus effect
e|--------------------|--------------------|--------------------|-------------------|
B|--------------------|--------------------|--------------------|-------------------|
G|-5--------3---------|---------3b4r3------|--------------------|-------------------|
D|--------------------|--------------------|-5--------3---------|-------------------|
A|--------------------|--------------------|--------------------|-------------------|
E|--------------------|--------------------|--------------------|-------------------|

e|--------------------|--------------------|--------------------|-------------------|
B|--------------------|--------------------|--------------------|-------------------|
G|-7------------------|---------7b8r7------|--------------------|-------------------|
D|----------8---------|--------------------|-5--------3---------|-------------------|
A|--------------------|--------------------|--------------------|-6--------5--------|
E|--------------------|--------------------|--------------------|-------------------|



[Prechorus]
e|--------------------|--------------------|--------------------|---------------|
B|--------------------|--------------------|--------------------|---------------|
G|--------------------|-----------------7--|-7b8----------------|---------------|
D|--------------------|--------------------|--------------------|---------------|
A|--------------------|--------------------|--------------------|---------------|
E|--------------------|--------------------|--------------------|---------------|



[Chorus]
   C           Eb          Bb                        continue same chords on synth or rhythm track
e|------------------------|------------------------|------------------------|------------------------|
B|------------------------|------------------------|------------------------|------------------------|
G|------------------------|------------------------|------------------------|------------------------|
D|---------------------8--|-----------------8------|---------------------8--|-----------------8--10--|
A|-------------10--10-----|-8-----8-----10---------|-------------10--10-----|-8-----8-----10---------|
E|-8-----8----------------|--------------------11--|-8-----8----------------|------------------------|

e|------------------------|------------------------|------------------------|------------------------|
B|------------------------|------------------------|------------------------|------------------------|
G|------------------------|------------------------|------------------------|------------------------|
D|-----------------10-----|------------------------|---------------------8--|------------------------|
A|------------------------|------------------------|-------------8---10-----|-8-----8---------8--10--|
E|-8-----8-----11------11-|-10----10----10--10--11-|-8-----8----------------|------------11----------|



[Verse 2]

  (1:24)
e|---------------------|---------------------|-----------------|----------------|
B|---------------------|---------------------|-----------------|----------------|
G|-5-------------------|----------3----------|-----------------|---3--------5---|
D|---------------------|---------------------|-5---------------|----------------|
A|---------------------|---------------------|-----------------|----------------|
E|---------------------|---------------------|-----------------|----------------|

rest for 2 bars, then:

e|--------------------|---------------------|
B|--------------------|---------------------|
G|--------------------|---------------------|
D|-5---------3--------|---------------------|
A|--------------------|-6---------5---------|
E|--------------------|---------------------|



[Prechorus 2]

e|--------------------|---------------------|------------------|-------------------|
B|--------------------|---------------------|------------------|-------------------|
G|-12-----------------|----------10---------|------------------|---------5----7----|
D|--------------------|---------------------|-12---------------|---------5----7----|
A|--------------------|---------------------|------------------|---------3----5----|
E|--------------------|---------------------|------------------|-------------------|



[Chorus 2]

   C           Eb          Bb                        continue same chords on synth or rhythm track
e|------------------------|------------------------|------------------------|------------------------|
B|------------------------|------------------------|------------------------|------------------------|
G|------------------------|------------------------|------------------------|------------------------|
D|-----------------8------|-----------------8------|-----------------8------|-----------------8--10--|
A|-------------10-----10--|-8-----8-----10---------|-------------10-----10--|-8-----8-----10---------|
E|-8-----8----------------|--------------------11--|-8-----8----------------|------------------------|

e|------------------------|------------------------|------------------------|------------------------|
B|------------------------|------------------------|------------------------|------------------------|
G|------------------------|------------------------|------------------------|------------------------|
D|-----------------10-----|------------------------|---------------------8--|------------------------|
A|------------------------|------------------------|-------------8---10-----|-8-----8---------8--10--|
E|-8-----8-----11------11-|-10----10----10--10--11-|-8-----8----------------|------------11----------|



[Bridge]

e|------------------------|----------------------------|-----------------------|-----------------------|
B|------------------------|----------------------------|-----------------------|-----------------------|
G|------------------------|----------------------------|-----------------------|-----------------------|
D|------------------------|---------------8--8/10\8----|----------------8---5--|-----------------------|
A|-6-----6----6---8---10--|-------5--------------------|-5-----5---------------|-----------------------|
E|----8-------------------|-6--------------------------|-----------------------|-8-----8-------8-8--8--|

e|------------------------|----------------------------|-----------------------|-----------------------|
B|------------------------|----------------------------|-----------------------|-----------------------|
G|------------------------|----------------------------|-----------------------|-----------------------|
D|------------------------|----------------------------|-------------------5---|-----------------------|
A|-6-----6--------8---10--|-5-----5--------------------|-5-----5-------8-------|---------------10------|
E|------------------------|----------------------------|-----------------------|-8-----8---------------|


[Bridge 2]
e|-------------------------|-------------------------|-------------------------|-------------------------|
B|-------------------------|-------------------------|-------------------------|-------------9--9--9--9--|
G|-5--5--5--5--5--5--5--5--|-3--3--3--3--3--3--3--3--|-3--3--3--3--3--3--3--3--|-------------------------|
D|-------------------------|-------------------------|-------------------------|-6--6--6--6--------------|
A|-------------------------|-------------------------|-------------------------|-------------------------|
E|-------------------------|-------------------------|-------------------------|-------------------------|

e|-------------------------|-------------------------|-------------------------|-----------------------------|
B|-------------------------|-------------------------|-------------------------|-6--6--6--6--6b8--b8--b8--b8-|
G|-5--5--5--5--5--5--5--5--|-3--3--3--3--3--3--3--3--|-3--3--3--3--3--3--3--3--|-----------------------------|
D|-------------------------|-------------------------|-------------------------|-----------------------------|
A|-------------------------|-------------------------|-------------------------|-----------------------------|
E|-------------------------|-------------------------|-------------------------|-----------------------------|

e|-------------------------|-------------------------|-------------------------|------------------|
B|-------------------------|-------------------------|-------------------------|------------------|
G|-------------------------|-------------------------|-------------------------|------------------|
D|-------------------------|-------------------------|-------------------------|------------------|
A|-------------------------|-------------5-----3-----|-------------------------|------------------|
E|-------------------------|-------------------------|-3-----------------------|------------------|


[Outro Chorus]

   Play
e|------------------------|------------------------|------------------------|------------------------|
B|------------------------|------------------------|------------------------|------------------------|
G|------------------------|------------------------|------------------------|------------------------|
D|-----------------8------|-----------------8------|-----------------8------|-----------------8--10--|
A|-------------10-----10--|-8-----8-----10---------|-------------10-----10--|-8-----8-----10---------|
E|-8-----8----------------|--------------------11--|-8-----8----------------|------------------------|

e|------------------------|------------------------|------------------------|------------------------|
B|------------------------|------------------------|------------------------|------------------------|
G|------------------------|------------------------|------------------------|------------------------|
D|-----------------10-----|------------------------|-----------------8------|------------------------|
A|------------------------|------------------------|-------------10-----10--|-8-----8---------8--10--|
E|-8-----8-----11------11-|-10----10----10--10--11-|-8-----8----------------|------------11----------|

e|------------------------|------------------------|-------------------------|------------------------|
B|------------------------|------------------------|-------------------------|------------------------|
G|------------------------|------------------------|-------------------------|------------------------|
D|------------------------|------------------------|-------------------------|------------------------|
A|-------------10--10--10-|-8-----8-----8---8---8--|-------------10--10--10--|-8-----8-----8---8---8--|
E|-8-----8----------------|------------------------|-8-----8-----------------|------------------------|

e|------------------------|------------------------|------------------------|------------------------|
B|------------------------|------------------------|------------------------|------------------------|
G|------------------------|------------------------|------------------------|------------------------|
D|------------------------|------------------------|------------------------|------------------------|
A|------------------------|------------------------|-------------10--10--10-|-8-----8---------8--10--|
E|-8-----8-----11--11--11-|-10----10----10--10--11-|-8-----8----------------|------------11----------|



************************************

| r   Release
| b   Bend
| /   Slide up
| \   Slide down

************************************
Suggest correction
Creating personal tab
Creating personal tab
You can edit any tab online and save it as your Personal.

You can edit, replace or remove any tab part or add personal notes – all changes will be seen only by you.

Personal tabs can be accessed anytime from any device, even offline.
Learn more »
Give kudos to tab author, rate the tab!
1 2 3 4 5
comments
print report bad tab
1 comment total.
0 reply
koolmeme 86 Jul 03, 2017 11:52 PM

you are a saint, thanks!

guest
You may want to rate the tab now too:
select rating
Wanna post a correction for this tab? Suggest correction