Oops, an error
Loading. Please wait.

Ignorance Tab

version 1
version 1
277,265 views 27 this week
12 commentsread comments
1 2 3 4 5
x 20
add to favorites
launch autoscroll
font size
0
reset
how to read this tab
guitar tuner
Autoscroll
slow
fast
+/-
esc
set tempo
stop
Help us to improve Ultimate-Guitar.com Take our survey!
×
Author
Tabbers playing skills
intermediate
E|---------------|--------------|--------------|--------------|
B|o--------------|--3-3--3-3-3--|--------------|--3-3--3-3-3--|
G|---------------|--4-4--4-4-4--|--------------|--4-4--4-4-4--|
D|---4-4--4-4-4--|--------------|--4-4--4-4-4--|--------------|
A|o--2-2--2-2-2--|--------------|--2-2--2-2-2--|--------------|
D|---------------|--------------|--------------|--------------|

E|--------------|--------------|--------------|-----------------| (x2)
B|--------------|--3-3--3-3-3--|--------------|----------5-----o|
G|--------------|--4-4--4-4-4--|--------------|--7-7-6-6--------|
D|--5-5--5-5-5--|--------------|--5-5--5-5-5--|--x-x-x-x---4~---|
A|--5-5--5-5-5--|--------------|--5-5--5-5-5--|--5-5-4-4---4~--o|
D|--5-5--5-5-5--|--------------|--5-5--5-5-5--|------------4~---|

E|-------------------|(x4) |-------------------| (x2) |-------------------| (x2)
B|o-----------------o|     |o-----------------o|      |o-----------------o|
G|-------4-x---4-----|     |-------4-x---4-----|      |---------x---------|
D|-----4---x-4---4---|     |-----5---x-5---5---|      |-------7-x---7-----|
A|o--2-----x--------o|     |o--------x--------o|      |o----5---x-5---5--o|
D|-------------------|     |---2---------------|      |---5---------------|

E|-------------------|(x4) |-------------------|(x2) |-------------------| (x2)
B|o-----------------o|     |o-----------------o|     |o-----------------o|
G|-------4-x---4-----|     |-------4-x---4-----|     |---------x---------|
D|-----4---x-4---4---|     |-----5---x-5---5---|     |-------7-x---7-----|
A|o--2-----x--------o|     |o--------x--------o|     |o----5---x-5---5--o|
D|-------------------|     |---2---------------|     |---5---------------|

E|-------------------|(x4) |-------------------|(x2) |-------------------| (x2)
B|o-----------------o|     |o-----------------o|     |o-----------------o|
G|------4--4---------|     |------4--4---------|     |-------------------|
D|-----------4-4-4---|     |-----------5-5-5---|     |------7--7---------|
A|o--2--------------o|     |o-----------------o|     |o----------5-5-5--o|
D|-------------------|     |---2---------------|     |---5---------------|

E|-------------------|(x4) |-------------------|(x2) |-------------------| (x2)
B|o-----------------o|     |o-----------------o|     |o-----------------o|
G|------4--4---------|     |------4--4---------|     |-------------------|
D|-----------4-4-4---|     |-----------5-5-5---|     |------7--7---------|
A|o--2--------------o|     |o-----------------o|     |o----------5-5-5--o|
D|-------------------|     |---2---------------|     |---5---------------|

E|--------------|-------------|
B|--------------|-------------|
G|-------x-x-x--|-------------|
D|--2~-2-x-x-x--|--2~-2~-2-5--|
A|--2~-2-x-x-x--|--2~-2~-2-5--|
D|--2~-2--------|--2~-2~-2-5--|

E|--------------|--------------|--------------|--------------|
B|--------------|--3-3--3-3-3--|--------------|--3-3--3-3-3--|
G|--------------|--4-4--4-4-4--|--------------|--4-4--4-4-4--|
D|--4-4--4-4-4--|--------------|--4-4--4-4-4--|--------------|
A|--2-2--2-2-2--|--------------|--2-2--2-2-2--|--------------|
D|--------------|--------------|--------------|--------------|

E|--------------|--------------|--------------|----------------|
B|--------------|--3-3--3-3-3--|--------------|----------5-----|
G|--------------|--4-4--4-4-4--|--------------|--7-7-6-6-------|
D|--5-5--5-5-5--|--------------|--5-5--5-5-5--|--x-x-x-x---4~--|
A|--5-5--5-5-5--|--------------|--5-5--5-5-5--|--5-5-4-4---4~--|
D|--5-5--5-5-5--|--------------|--5-5--5-5-5--|------------4~--|

E|------|------|------|------|------|------|------|----------------|
B|------|------|------|------|------|------|------|----------5-----|
G|--4~--|--4~--|--4~--|--4~--|------|------|------|--7-7-6-6-------|
D|--4~--|--4~--|--4~--|--4~--|--5~--|--5~--|--5~--|--x-x-x-x---4~--|
A|--2~--|--2~--|--2~--|--2~--|--5~--|--5~--|--5~--|--5-5-4-4---4~--|
E|------|------|------|------|--5~--|--5~--|--5~--|------------4~--|

E|------------------|-------------------|------------------|-------------------|
B|------------------|-------------------|------------------|-------------------|
G|-----4--4---------|-------4--4--------|-----4--4---------|-------------------|
D|----------4-4-4---|------------4-4-4--|----------5-5-5---|-------7--7--------|
A|--2---------------|--2-2--------------|------------------|------------5-5-5--|
D|------------------|-------------------|--2---------------|--4/5--------------|

E|------------|------------| (x2) |------------|------------| (x2) |-----------|------------| (x2)
B|o-----------|-----------o|      |o-----------|-----------o|      |o----------|-----------o|
G|-------4----|--4---4-----|      |-------4----|--4---4-----|      |-----------|------------|
D|-----4---4--|----4---4---|      |-----5---5--|----5---5---|      |-------7---|--7---7-----|
A|o--2--------|-----------o|      |o-----------|-----------o|      |o----5--5--|----5---5--o|
D|------------|------------|      |---2--------|------------|      |---5-------|------------|

E|------------|------------| (x2) |------------|------------| (x2) |-----------|------------| (x2)
B|o-----------|-----------o|      |o-----------|-----------o|      |o----------|-----------o|
G|-------4----|--4---4-----|      |-------4----|--4---4-----|      |-----------|------------|
D|-----4---4--|----4---4---|      |-----5---5--|----5---5---|      |-------7---|--7---7-----|
A|o--2--------|-----------o|      |o-----------|-----------o|      |o----5--5--|----5---5--o|
D|------------|------------|      |---2--------|------------|      |---5-------|------------|

E|-------------------|   |-------------------| (x2)  |-------------------| (x2)
B|o-----------------o|   |o-----------------o|       |o-----------------o|
G|------4--4---------|   |------4--4---------|       |-------------------|
D|-----------4-4-4---|   |-----------5-5-5---|       |------7--7---------|
A|o--2--------------o|   |o-----------------o|       |o----------5-5-5--o|
D|-------------------|   |---2---------------|       |---5---------------|

E|-------------------| (x2) |-------------------| (x2)|-------------------| (x2)
B|o-----------------o|      |o-----------------o|     |o-----------------o|
G|------4--4---------|      |------4--4---------|     |-------------------|
D|-----------4-4-4---|      |-----------5-5-5---|     |------7--7---------|
A|o--2--------------o|      |o-----------------o|     |o----------5-5-5--o|
D|-------------------|      |---2---------------|     |---5---------------|

E|--------------|-------------|
B|--------------|-------------|
G|-------x-x-x--|-------------|
D|--2~-2-x-x-x--|--2~-2~-2-5--|
A|--2~-2-x-x-x--|--2~-2~-2-5--|
D|--2~-2--------|--2~-2~-2-5--|

E|--------------|--------------|--------------|--------------|
B|--------------|--3-3--3-3-3--|--------------|--3-3--3-3-3--|
G|--------------|--4-4--4-4-4--|--------------|--4-4--4-4-4--|
D|--4-4--4-4-4--|--------------|--4-4--4-4-4--|--------------|
A|--2-2--2-2-2--|--------------|--2-2--2-2-2--|--------------|
D|--------------|--------------|--------------|--------------|

E|--------------|--------------|--------------|----------------|
B|--------------|--3-3--3-3-3--|--------------|----------5-----|
G|--------------|--4-4--4-4-4--|--------------|--7-7-6-6-------|
D|--5-5--5-5-5--|--------------|--5-5--5-5-5--|--x-x-x-x---4~--|
A|--5-5--5-5-5--|--------------|--5-5--5-5-5--|--5-5-4-4---4~--|
D|--5-5--5-5-5--|--------------|--5-5--5-5-5--|------------4~--|

E|------|------|------|------|------|------|------|----------------|
B|------|------|------|------|------|------|------|----------5-----|
G|--4~--|--4~--|--4~--|--4~--|------|------|------|--7-7-6-6-------|
D|--4~--|--4~--|--4~--|--4~--|--5~--|--5~--|--5~--|--x-x-x-x---4~--|
A|--2~--|--2~--|--2~--|--2~--|--5~--|--5~--|--5~--|--5-5-4-4---4~--|
D|------|------|------|------|--5~--|--5~--|--5~--|------------4~--|

E|------------------|----------------|------------------|-------------------|
B|------------------|----------------|------------------|-------------------|
G|--4~--x-x--x-x-x--|--x-x-x--x-x-x--|------x-x--x-x-x--|------x-x-9-9-9-9--|
D|--4~--x-x--x-x-x--|--x-x-x--x-x-x--|--2~--x-x--x-x-x--|--5~--x-x-x-x-x-x--|
A|--2~--x-x--x-x-x--|--x-x-x--x-x-x--|--2~--x-x--x-x-x--|--5~--x-x-7-7-7-7--|
D|------------------|----------------|--2~--------------|--5~---------------|

E|------------------|-------------------|------------------|------------------|
B|------------------|-------------------|------------------|------------------|
G|--4~--x-x--x-x-x--|--x-x-x-x-x-x-x-x--|------x-x--x-x-x--|------------------|
D|--4~--x-x--x-x-x--|--x-x-x-x-x-x-x-x--|--2~--x-x--x-x-x--|--5~-5-5-5-5-5-5--|
A|--2~--x-x--x-x-x--|--x-x-x-x-x-x-x-x--|--2~--x-x--x-x-x--|--5~-5-5-5-5-5-5--|
D|------------------|-------------------|--2~--------------|--5~-5-5-5-5-5-5--|

(* = tremelo picking)
E|------------|------------|------------|----------|
B|------------|------------|------------|--7*-10*--|
G|--7*-6*-4*--|------------|--7*-6*-9*--|----------|
D|------------|--4*-5*-4*--|------------|----------|
A|------------|------------|------------|----------|
D|------------|------------|------------|----------|

E|--------------|-------------|
B|--------------|-------------|
G|-------x-x-x--|-------------|
D|--2~-2-x-x-x--|--2~-2~-2-5--|
A|--2~-2-x-x-x--|--2~-2~-2-5--|
D|--2~-2--------|--2~-2~-2-5--|

E|-------|------|------|------|------|------|------|-----------------| (x2)
B|o------|------|------|------|------|------|------|----------5-----o|
G|---4~--|--4~--|--4~--|--4~--|------|------|------|--7-7-6-6--------|
D|---4~--|--4~--|--4~--|--4~--|--5~--|--5~--|--5~--|--x-x-x-x---4~---|
A|o--2~--|--2~--|--2~--|--2~--|--5~--|--5~--|--5~--|--5-5-4-4---4~--o|
D|-------|------|------|------|--5~--|--5~--|--5~--|------------4~---|


************************************

| x  Dead note
| ~  Vibrato
| /  Slide up
| *  Natural harmonic

************************************
Suggest correction
comments
print report bad tab
12 comments total. Showing first comments.
0 reply
zack_ritch 198 Jul 09, 2009 03:17 PM

Very Perfectly done! I love it! Great Song too. I've preordered the CD, Can't Wait

0 reply
GibsonsRock! 10 Jul 09, 2009 04:20 PM

well perfect, well tabbed, great band, great song and can't wait for the album.

-2 reply
synyster rev 196 Jul 09, 2009 10:40 PM

intro is very wrong for a start

guest
You may want to rate the tab now too:
select rating
Wanna post a correction for this tab? Suggest correction