Oops, an error
Loading. Please wait.

Ignorance Tab

version 2
version 2
550,967 views 480 this week
57 commentsread comments
1 2 3 4 5
excellent!
x 127
add to favorites
launch autoscroll
font size
0
reset
how to read this tab
guitar tuner
Tab Pro tools
  • play this tab
  • loop segment
  • change instrument
  • show fretboard
  • metronome
×
Best way to learn
"Ignorance"
Autoscroll
slow
fast
+/-
esc
set tempo
stop
Contributor
Difficulty
Tabbers playing skills
intermediate
advanced +
PLS LIKE OUR BAND FAN PAGE @ FACEBOOK - https://www.facebook.com/SinceAstrid

Tabbed By Francis Twister
From Paramore Philippines(PARAWHORE)

Pls rate/comment...:D

-----------------------------------------------------------------------------------
                                  Update II (sept.8-09)
-----------------------------------------------------------------------------------

Tuning (this tab): Standard


this is based on what i saw on their live versions...some parts are not clear to me if 
used it..:)
Intro-
GtrI do
|--------------------------------------------------------------------|
|-77-77-7--7-7--7-7--7---------------33-33-3-------------------------|
|-77-77-7--7-7--7-7--7------44-44-4--x--xx-x-44-44-4-----------------|2X
|-99-99-9--7-7--7-7--7--2x--55-55-5--44-44-4-55-55-5--------7--4-----|
|-99-99-9--9-9--9-9--9------55-55-5--55-55-5-55-55-5--55-44----4-----|
|-77-77-7--1010-1010-10-----33-33-3----------33-33-3-----------2-----|

GtrII do  

|---------------------------------------------------------------------|
|----------------------------------------------------------77-55------|
|----------------------------------------------------------77-66-7----|
|------------------------------------------------------------------4--|
|---------------------------------------------------------------------|
|---------------------------------------------------------------------|

|---------------------------------------------------------------------|
|-33-33-3--1010-1010-10-----88-88-8-1010-1010-10-88-88-8---77-55------|
|-44-44-4--1111-1111-11-2X--99-99-9-1111-1111-11-99-99-9---77-66-7----|
|--------------------------(99-99-9-1212-1212-12-99-99-9)----------4--|
|---------------------------------------------------------------------|
|---------------------------------------------------------------------|

VerseI
1.-
GtrI PALM MUTE
|-------------------------------|
|-------------------------------|
|-------------------------------|
|-----9-----9--------9-----9----|2x
|---9-----9---9----9-----9---9--|
|-7--------------7--------------|

|----------------------------------------------------------------|
|----------------------------------------------------------------|
|--------------------------------2---2-----------2---------------|
|------9---9--------9---9------0---0---0-------0---0-------------|
|---10--10--10---10--10--10--------------------------------------|
|-0------------0-------------3-------------3---------------------|


2.

|-------------------------------|
|-------------------------------|
|-------------------------------|
|-----9---9--9--9---9---9--9----|2x
|---9---9--9---9--9---9---9--9--|
|-7-----------------------------|

|----------------------------------------------------------------|
|----------------------------------------------------------------|
|--------------------------------2--2--2---------2---2---2-------|
|-----9--9--9------9--9--9------0--0--0--0-----0---0---0---0-----|
|---10-10-10-10--10-10-10-10-------------------------------------|
|-0-------------0-------------3-------------3--------------------|

GtrII2x
|------------------------------------------|
|------------------------------------------|
|------------------------------------------|
|------------------------------------------|
|-2-5555555-2-5555555-2-5555555-99999999---|
|------------------------------------------|
  * ******* * ******* * ******* ********

|-----------------------------------------|
|-----------------------------------------|
|-----------------------------------------|
|-----------------------------------------|
|-77777777-77777777--55555555-44444444----|
|-----------------------------------------|
  ******** ********  ******** ********

GtrIII(with delay)0:34
|-7-------------7------------------7------------------(10)-------|
|-7-------------7------------------8------------------(12)-------|
|-7-------------7------------------9------------------(12)-------|
|----------------------------------------------------------------|
|----------------------------------------------------------------|
|----------------------------------------------------------------|


REfrain 2x
GtrI

|-------------------------------|
|-------------------------------|
|-------------------------------|
|---9-x-9----------9-x-9--------|2x
|---------999------------999----|
|-7-------------7---------------|


|-------------------------------------------------------------|
|-------------------------------------------------------------|
|-------------------------------------------------------------|
|---9-x-9----------9-x-9----------7-x-7----------7-x-7--------|
|---------101010--------101010-----------555-------------555--|
|-0--------------0--------------3--------------3--------------|


GtrII
|----------------------------------------------------------------------------|
|----------------------------------------------------------------------------|
|-77777777-77777777-77777777-111111111111-99999999-99999999-7777777-66666666-|
|----------------------------------------------------------------------------|2x
|-55555555-55555555-55555555-9-9-9-9-9-9--77777777-77777777-5555555-44444444-|
|----------------------------------------------------------------------------|

then both
|-----------------------|
|-----------------------|
|-----------------------|
|-22-xxx-2-2---2-5------|
|-22-xxx-2-2---2-5------|
|-00-xxx-0-0---0-3------|

Chorus-
GtrI 
GtrI do
|--------------------------------------------------------------------|
|-77-77-7--7-7--7-7--7---------------33-33-3-------------------------|
|-77-77-7--7-7--7-7--7------44-44-4--x--xx-x-44-44-4-----------------|
|-99-99-9--7-7--7-7--7--2x--55-55-5--44-44-4-55-55-5--------7--4-----|
|-99-99-9--9-9--9-9--9------55-55-5--55-55-5-55-55-5--55-44----4-----|
|-77-77-7--1010-1010-10-----33-33-3----------33-33-3-----------2-----|

|--------------------------------------------------------------------|
|-7777777----------------------------33-33-3-------------------------|
|-7777777-11111111111111----44-44-4--x--xx-x-44-44-4-----------------|
|-9999999-12121212121212-2X-55-55-5--44-44-4-55-55-5--------7--4-----|
|-9999999-12121212121212----55-55-5--55-55-5-55-55-5--55-44----4-----|
|-7777777-10101010101010----33-33-3----------33-33-3-----------2-----|

GtrII 
|---------------------------------------------------------------------|
|-33-33-3--1010-1010-10-----88-88-8-1010-1010-10-88-88-8---77-55------|
|-44-44-4--1111-1111-11-2X--99-99-9-1111-1111-11-99-99-9---77-66-7----|
|--------------------------(99-99-9-1212-1212-12-99-99-9)----------4--|
|---------------------------------------------------------------------|
|---------------------------------------------------------------------|


|---------------------------------------------------------------------|
|-3333333-10101010101010----88-88-8-1010-1010-10-88-88-8---77-55------|
|-4444444-11111111111111-2X-99-99-9-1111-1111-11-99-99-9---77-66-7----|
|--------------------------(99-99-9-1212-1212-12-99-99-9)----------4--|
|---------------------------------------------------------------------|
|---------------------------------------------------------------------|

then
Ignorance is....
|-------------------------------|
|-------------------------------|
|-------------------------------|
|---9-x-9----------9-x-9--------|2x
|---------999------------999----|
|-7-------------7---------------|

|-------------------------------------------------------------|
|-------------------------------------------------------------|
|-------------------------------------------------------------|
|---9-x-9--------9-x-9-----------7-x-7------------------------|
|--------101010--------101010-----------555-------------------|
|-0-------------0--------------3------------------------------|


VerseII-Do 2 part of VerseI

GtrII same as verses
repeat verse 2-to refrain


Repeat chorus-

Ignorance is your new best friend....
|--------------------------------------|
|--------------------------------------|
|------------------------------9999----|
|-9-xx-xxx-xxx-xxx2-xx-xxx5-xx-xxxx----|
|-9-xx-xxx-xxx-xxx2-xx-xxx5-xx-xxxx----|
|-7-xx-xxx-xxx-xxx0-xx-xxx3-xx-xxxx----|

|-----------------------------------|
|-----------------------------------|
|-----------------------------------|
|-9-x9-99999-2-xx-xxx5--xx-xx-5555--|
|-9-xx-xxxxx-2-xx-xxx5--xx-xx-5555--|
|-7-xx-xxxxx-0-xx-xxx3--xx-xx-3333--|

solo-(live version)
GtrI
|------------------------------------------------------------------------|
|-1515151515151515-14141414-12121212-7-7-7-7-7-7-7-7--8-8-8-8--7-7-7-7---|x
|------------------------------------------------------------------------|
|-1212121212121212-11111111-9-9-9-9--4-4-4-4-4-4-4-4--5-5-5-5--4-4-4-4---|
|------------------------------------------------------------------------|
|------------------------------------------------------------------------|

|------------------------------------------------------------------------|
|-1515151515151515-14141414-17171717-1919191919191919-2222222222222222---|x
|------------------------------------------------------------------------|
|-1212121212121212-11111111-14141414-1616161616161616-1919191919191919---|
|------------------------------------------------------------------------|
|------------------------------------------------------------------------|

GtrII

|-----------------------------------------------------------------|
|-----------------------------------------------------------------|
|-----------------------------------------------------------------|
|-9-9-9-9-9-9-9-9-9-9-9-9-9-9-9-9-4-4-4-4-4-4-4-4-7-7-7-7-7-7-7-7-|2x
|-9-9-9-9-9-9-9-9-9-9-9-9-9-9-9-9-4-4-4-4-4-4-4-4-7-7-7-7-7-7-7-7-|
|-7-7-7-7-7-7-7-7-7-7-7-7-7-7-7-7-2-2-2-2-2-2-2-2-5-5-5-5-5-5-5-5-|

then
|-----------------------|
|-----------------------|
|-----------------------|
|-22-xxx-2-2---2-5------|
|-22-xxx-2-2---2-5------|
|-00-xxx-0-0---0-3------|

Do chorus 

end

Tuning (this tab):  Drop D
Intro-
GtrI do 2x
|------------------------------------------------------------------------|
|-33-33-3--77-77-7---33-33-3--77-77-7--88-88-8-77-77-7-88-88-8-------5---|
|-44-44-4--77-77-7---44-44-4--77-77-7--99-99-9-77-77-7-99-99-9-77-66-----|
|-44-44-4------------44-44-4-----------99-99-9---------99-99-9---------4-|
|-22-22-2--55-55-5---22-22-2--55-55-5--77-77-7-55-55-5-77-77-7-55-44---4-|
|----------------------------------------------------------------------4-|

GtrII do  2x
|------------------------------------------------------------------------|
|------------------------------------------------------------------------|
|-44-44-4--77-77-7---44-44-4--77-77-7----------77-77-7-------------------|
|-44-44-4--77-77-7---44-44-4--77-77-7--55-55-5-77-77-7-55-55-5-77-66-7-4-|
|-22-22-2--55-55-5---22-22-2--55-55-5--55-55-5-55-55-5-55-55-5-55-44-7-4-|
|--------------------------------------55-55-5---------55-55-5-------7-4-|


Verse-
GtrI PALM MUTE
|-------------------------------|
|-------------------------------|
|-----4-----4--------4-----4----|
|---4-----4---4----4-----4---4--|2x
|-2--------------2--------------|
|-------------------------------|

|----------------------------------------------------------------|
|----------------------------------------------------------------|
|-----4---4--------4---4-----------------------------------------|
|---5---5---5----5---5---5--------7----7----------7----7---------|
|-------------------------------5----5---5------5----5---5-------|
|-2------------2--------------5---------------5------------------|

Verse2-
|-------------------------------|
|-------------------------------|
|-----4--4---4---4---4--4--4----|
|---4---4--4---4---4---4--4-4---|2x
|-2-----------------------------|
|-------------------------------|

|----------------------------------------------------------------|
|----------------------------------------------------------------|
|----4--4--4-------4--4---4--------------------------------------|
|---5-5--5---5----5--5--5---5------7--7--7--------7----7---7-----|
|-------------------------------5---5--5---5----5----5---5---5---|
|-2-------------2-------------5---------------5------------------|

GtrII2x
|------------------------------------------|
|------------------------------------------|
|------------------------------------------|
|------------------------------------------|
|-2-5555555-2-5555555-2-5555555-99999999---|
|------------------------------------------|
  * ******* * ******* * ******* ********

|-----------------------------------------|
|-----------------------------------------|
|-----------------------------------------|
|-----------------------------------------|
|-77777777-77777777--55555555-44444444----|
|-----------------------------------------|
  ******** ********  ******** ********

GtrIII(with delay)0:34
|-7-------------7------------------7------------------(10)-------|
|-7-------------7------------------8------------------(12)-------|
|-7-------------7------------------9------------------(12)-------|
|----------------------------------------------------------------|
|----------------------------------------------------------------|
|----------------------------------------------------------------|


REfrain 2x
GtrI
|-------------------------------|
|-------------------------------|
|---4-x-4----------4-x-4--------|
|---------444-------------444---|2x
|-2-------------2---------------|
|-------------------------------|

|-------------------------------------------------------------|
|-------------------------------------------------------------|
|---4-x-4--------4-x-4----------------------------------------|
|---------555----------555-------7-x-7----------7-x-7---------|
|--------------------------------------555-------------555----|
|-2------------2--------------5---------------5---------------|

GtrII

|----------------------------------------------------------------------------|
|----------------------------------------------------------------------------|
|-77777777-77777777-77777777-111111111111-99999999-99999999-7777777-66666666-|
|----------------------------------------------------------------------------|2x
|-55555555-55555555-55555555-9-9-9-9-9-9--77777777-77777777-5555555-44444444-|
|----------------------------------------------------------------------------|

then both
|-----------------------|
|-----------------------|
|-----------------------|
|-22-xxx-2-2---2-5------|
|-22-xxx-2-2---2-5------|
|-22-xxx-2-2---2-5------|

Chorus-

GtrI do 2x
|------------------------------------------------------------------------|
|-33-33-3--77-77-7---33-33-3--77-77-7--88-88-8-77-77-7-88-88-8-------5---|
|-44-44-4--77-77-7---44-44-4--77-77-7--99-99-9-77-77-7-99-99-9-77-66-----|
|-44-44-4------------44-44-4-----------99-99-9---------99-99-9---------4-|
|-22-22-2--55-55-5---22-22-2--55-55-5--77-77-7-55-55-5-77-77-7-55-44---4-|
|----------------------------------------------------------------------4-|

|------------------------------------------------------------------------|
|-3333333--7777777---3333333--7777777--8888888-7777777-8888888-------5---|
|-4444444--7777777---4444444--7777777--9999999-7777777-9999999-77-66-----|
|-4444444------------4444444-----------9999999---------9999999---------4-|
|-2222222--5555555---2222222--5555555--7777777-5555555-7777777-55-44---4-|
|----------------------------------------------------------------------4-|

GtrII do  2x
|------------------------------------------------------------------------|
|------------------------------------------------------------------------|
|-44-44-4--77-77-7---44-44-4--77-77-7----------77-77-7-------------------|
|-44-44-4--77-77-7---44-44-4--77-77-7--55-55-5-77-77-7-55-55-5-77-66-7-4-|
|-22-22-2--55-55-5---22-22-2--55-55-5--55-55-5-55-55-5-55-55-5-55-44-7-4-|
|--------------------------------------55-55-5---------55-55-5-------7-4-|
then
Ignorance is....
|-------------------------------|
|-------------------------------|
|---4-x-4----------4-x-4--------|
|---------444-------------444---|2x
|-2-------------2---------------|
|-------------------------------|

|-------------------------------------------------------------|
|-------------------------------------------------------------|
|---4-x-4--------4-x-4----------------------------------------|
|---------555----------555-------7-x-7------------------------|
|--------------------------------------555--------------------|
|-2------------2--------------5-------------------------------|


Verse-
GtrI
|-------------------------------|
|-------------------------------|
|-----4--4---4-------4--4--4----|
|---4---4--4---4---4---4--4-4---|2x
|-2--------------2--------------|
|-------------------------------|

|----------------------------------------------------------------|
|----------------------------------------------------------------|
|----4--4--4-------4--4---4--------------------------------------|
|---5-5--5---5----5--5--5---5------7--7--7--------7----7---7-----|
|-------------------------------5---5--5---5----5----5---5---5---|
|-2-------------2-------------5---------------5------------------|
GtrII same as verses
repeat verse 2-to refrain


Repeat chorus-

Ignorance is your new best friend....
|--------------------------------------|
|--------------------------------------|
|-4----------------------------9999----|
|-4-xx-xxx-xxx-xxx2-xx-xxx5-xx-xxxx----|
|-2-xx-xxx-xxx-xxx2-xx-xxx5-xx-xxxx----|
|---xx-xxx-xxx-xxx2-xx-xxx5-xx-xxxx----|

|-----------------------------------|
|-----------------------------------|
|-4--4-44444------------------------|
|-4-xx-xxxxx-2-xx-xxx5--xx-xx-5555--|
|-2-xx-xxxxx-2-xx-xxx5--xx-xx-5555--|
|---xx-xxxxx-2-xx-xxx5--xx-xx-5555--|

solo-(live version)
GtrI
|------------------------------------------------------------------------|
|-1515151515151515-14141414-12121212-7-7-7-7-7-7-7-7--8-8-8-8--7-7-7-7---|x
|------------------------------------------------------------------------|
|-1212121212121212-11111111-9-9-9-9--4-4-4-4-4-4-4-4--5-5-5-5--4-4-4-4---|
|------------------------------------------------------------------------|
|------------------------------------------------------------------------|

|------------------------------------------------------------------------|
|-1515151515151515-14141414-17171717-1919191919191919-2222222222222222---|x
|------------------------------------------------------------------------|
|-1212121212121212-11111111-14141414-1616161616161616-1919191919191919---|
|------------------------------------------------------------------------|
|------------------------------------------------------------------------|

GtrII

|-----------------------------------------------------------------|
|-----------------------------------------------------------------|
|-4-4-4-4-4-4-4-4-4-4-4-4-4-4-4-4-2-2-2-2-2-2-2-2-9-9-9-9-9-9-9-9-|
|-4-4-4-4-4-4-4-4-4-4-4-4-4-4-4-4-4-4-4-4-4-4-4-4-7-7-7-7-7-7-7-7-|2x
|-2-2-2-2-2-2-2-2-2-2-2-2-2-2-2-2-4-4-4-4-4-4-4-4-7-7-7-7-7-7-7-7-|
|---------------------------------4-4-4-4-4-4-4-4-7-7-7-7-7-7-7-7-|

|-----------------------|
|-----------------------|
|-----------------------|
|-22-xxx-2-2---2-5------|
|-22-xxx-2-2---2-5------|
|-22-xxx-2-2---2-5------|

repeat chorus
end


Lyrics-

If I'm a bad person,
You don't like me.
I guess I'll go,
Make my own way.
It's a circle,
I mean cycle.
I can't excite you anymore.
Where's your gavel, your jury?
What's my offense this time?
You're not a judge but if you're gonna judge me,
Well sentence me to another life.

(Chorus) Don't wanna hear your sad songs.
I don't wanna feel your pain,
When you swear it's all my fault.
Cause you know we're not the same.
Oh we're not the same,
The friends who stuck together.
We wrote our names in blood,
But I guess you can't accept that the change is good,
It's good.
You treat me just like another stranger.
Well it's nice to meet you sir.
I guess I'll go.
I best be on my way out.
Ignorance is your new best friend.

This is the best thing that could've happened.
Any longer and I wouldn't have made it.
It's not a war.
No, it's not a rapture.
I'm just a person, but you can't take it,
The same tricks that once fooled me.
They won't get you anywhere.
I'm not the same kid from your memory.
Now I can fend for myself.

(Chorus)

You treat me just like another stranger.
Well it's nice to meet you sir.
I guess I'll go.
I best be on my way out.
comments
print report bad tab
57 comments total. Showing first comments. show 2 bad comments
0 reply
doobidoo wrote on July 18 2009, 09:58 pm

I've watch their live version of the song...and josh was doin' the same thing as what i did...:)

I want to post or [tab]
guest
You may want to rate the tab now too:
select rating
Please do not post tabs as comments. Select "correction" instead!