Oops, an error
Loading. Please wait.

Ignorance Tab

version 3
version 3
50,687 views 12 this week
3 commentsread comments
1 2 3 4 5
x 6
add to favorites
launch autoscroll
font size
0
reset
how to read this tab
guitar tuner
Autoscroll
slow
fast
+/-
esc
set tempo
stop
Help us to improve Ultimate-Guitar.com Take our survey!
×
Author
Difficulty
intermediate
----------------------------------------------------------------------------
                            Ignorance - Paramore

----------------------------------------------------------------------------

Tabbed by: Garage_Messiahx
Email: verabby@live.com
*This is how I learned to play it. I find it a bit easier. And I would like to 
assume this is about 90% accurate. Give me your opinion?*

Tuning: Standard EADGBE - Lead Guitar (Josh Farro)

[Intro]

e|-----------------------------------------------------------------|
B|-----------------------------------------------------------------|
G|-8-8--8-8--8---11-11--11-11--11---8-8--8-8--8---11-11--11-11--11-|
D|-9-9--9-9--9---12-12--12-12--12---9-9--9-9--9---12-12--12-12--12-|
A|-9-9--9-9--9---12-12--12-12--12---9-9--9-9--9---12-12--12-12--12-|
E|-7-7--7-7--7---10-10--10-10--10---7-7--7-7--7---10-10--10-10--10-|

e|------------------------------------------------------------|
B|-8-8--8-8--8---7-7--7-7--7---8-8--8-8--8--------------------|
G|-9-9--9-9--9---7-7--7-7--7---9-9--9-9--9---77-66------------|
D|-9-9--9-9--9---x-x--x-x--x---9-9--9-9--9---xx-xx--7-4-------|
A|-7-7--7-7--7---5-5--5-5--5---7-7--7-7--7---55-44--x-x-------|
E|--------------------------------------------------5-2-------|

e|-----------------------------------------------------------------|
B|-----------------------------------------------------------------|
G|-8-8--8-8--8---11-11--11-11--11---8-8--8-8--8---11-11--11-11--11-|
D|-9-9--9-9--9---12-12--12-12--12---9-9--9-9--9---12-12--12-12--12-|
A|-9-9--9-9--9---12-12--12-12--12---9-9--9-9--9---12-12--12-12--12-|
E|-7-7--7-7--7---10-10--10-10--10---7-7--7-7--7---10-10--10-10--10-|

e|------------------------------------------------------------|
B|-8-8--8-8--8---7-7--7-7--7---8-8--8-8--8--------------------|
G|-9-9--9-9--9---7-7--7-7--7---9-9--9-9--9---77-66-10/11------|
D|-9-9--9-9--9---x-x--x-x--x---9-9--9-9--9---xx-xx-x----------|
A|-7-7--7-7--7---5-5--5-5--5---7-7--7-7--7---55-44-8/9--------|
E|------------------------------------------------------------|


[Verse I] - Palm Muted

e|---------------------------------------------------------------|
B|---------------------------------------------------------------|
G|---------------------------------------------------------------|
D|-----9-----9--------9-----9--------9-----9--------9-----9------|
A|---9-----9---9----9-----9---9----9-----9---9----9-----9---9----|
E|-7--------------7--------------7--------------7----------------|

e|------------------------------------------------------------------|
B|------------------------------------------------------------------|
G|------------------------------------------------------------------|
D|------9------9----------9------9---------7-----7--------6-----6---|
A|---10-----10---10----10-----10---10----5-----5---5----5-----5---5-|
E|-0-----------------0-----------------3--------------3-------------|
-
e|-----------------------------------------------------------------|
B|-----------------------------------------------------------------|
G|-----------------------------------------------------------------|
D|-----9------9--------9------9--------9------9--------9---9---9---|
A|---9---9--9---9----9---9--9---9----9---9--9---9----9---9---9---9-|
E|-7---------------7---------------7---------------7---------------|

e|---------------------------------------------------------------------------|
B|---------------------------------------------------------------------------|
G|---------------------------------------------------------------------------|
D|------9----9---------------9--------9----------7---7-----------6---6-------|
A|---10---10---10---10----10---10---10--10-----5---5---5---5---5---5---5---5-|
E|-0--------------0-----0--------------------3-----------3---3-----------3---|


[Pre-Chorus] x2

e|---------------------------------------------------------------|
B|---------------------------------------------------------------|
G|---------------------------------------------------------------|  
D|---9-x-9--------9-x-9---------9-x-9--------9-x-9---------------|
A|---------999----------999-----------999----------999-----------|
E|-7------------7-------------7------------7---------------------|

e|---------------------------------------------------------------|
B|---------------------------------------------------------------|
G|---------------------------------------------------------------|
D|---9-x-9-----------9-x-9------------7-x-7--------7-x-7---------|
A|---------101010----------101010-----------555----------555-----|
E|-0---------------0----------------3------------3---------------|
-
e|-----------------------------------|
B|-----------------------------------|
G|-----------------------------------|
D|-2-2-xxx-2-2--2-5------------------|
A|-2-2-xxx-2-2--2-5------------------|
E|-0-0-xxx-0-0--0-3------------------|


[Chorus I]

e|-----------------------------------------------------------------|
B|-----------------------------------------------------------------|
G|-8-8--8-8--8---11-11--11-11--11---8-8--8-8--8---11-11--11-11--11-|
D|-9-9--9-9--9---12-12--12-12--12---9-9--9-9--9---12-12--12-12--12-|
A|-9-9--9-9--9---12-12--12-12--12---9-9--9-9--9---12-12--12-12--12-|
E|-7-7--7-7--7---10-10--10-10--10---7-7--7-7--7---10-10--10-10--10-|

e|------------------------------------------------------------|
B|-8-8--8-8--8---7-7--7-7--7---8-8--8-8--8--------------------|
G|-9-9--9-9--9---7-7--7-7--7---9-9--9-9--9---77-66-10/11------|
D|-9-9--9-9--9---x-x--x-x--x---9-9--9-9--9---xx-xx-x----------|
A|-7-7--7-7--7---5-5--5-5--5---7-7--7-7--7---55-44-8/9--------|
E|------------------------------------------------------------|
-
e|--------------------------------------------------------|
B|--------------------------------------------------------|
G|-88888888--1111111111111111--88888888--1111111111111111-|
D|-99999999--1212121212121212--99999999--1212121212121212-|
A|-99999999--1212121212121212--99999999--1212121212121212-|
E|-77777777--1010101010101010--77777777--1010101010101010-|

e|-------------------------------------------------|
B|-88888888--77777777--88888888--------------------|
G|-99999999--77777777--99999999---77-66-10/11------|
D|-99999999--xxxxxxxx--99999999---xx-xx-x----------|
A|-77777777--55555555--77777777---55-44-8/9--------|
E|-------------------------------------------------|


[Refrain]

e|-----------------------------------------------------------|
B|-----------------------------------------------------------|
G|-----------------------------------------------------------|
D|---9-x-9--------9-x-9--------9-x-9-----------7-x-7---------|
A|---------999----------999----------101010----------555-----|
E|-7------------7------------0---------------3---------------|


[Verse II] - Palm Muted x2

e|--------------------------------------------------------------------|
B|--------------------------------------------------------------------|
G|--------------------------------------------------------------------|
D|-----9---9-----------9---9-----------9---9-----------9---9----------|
A|---9---9---9---9---9---9---9---9---9---9---9---9---9---9---9---9----|
E|-7-----------7---7-----------7---7-----------7---7-----------7------|

e|----------------------------------------------------------------------|
B|----------------------------------------------------------------------|
G|----------------------------------------------------------------------|
D|------9----9--------------9----9----------7---7-----------7---7-------|
A|---10---10---10---10---10---10---10-----5---5---5---5---5---5---5---5-|
E|-0--------------0----0----------------3-----------3---3-----------3---|


[Pre Chorus] x2

e|---------------------------------------------------------------|
B|---------------------------------------------------------------|
G|---------------------------------------------------------------|  
D|---9-x-9--------9-x-9---------9-x-9--------9-x-9---------------|
A|---------999----------999-----------999----------999-----------|
E|-7------------7-------------7------------7---------------------|

e|---------------------------------------------------------------|
B|---------------------------------------------------------------|
G|---------------------------------------------------------------|
D|---9-x-9-----------9-x-9------------7-x-7--------7-x-7---------|
A|---------101010----------101010-----------555----------555-----|
E|-0---------------0----------------3------------3---------------|
-
e|-----------------------------------|
B|-----------------------------------|
G|-----------------------------------|
D|-2-2-xxx-2-2--2-5------------------|
A|-2-2-xxx-2-2--2-5------------------|
E|-0-0-xxx-0-0--0-3------------------|


[Repeat Chorus I]


[Bridge]

e|--------------------------------------------|
B|--------------------------------------------|       
G|----------------------------------21212121--|       9
D|-9--xx-xxx-xxx-xxx--2-x-xxx--5-xx-x-x-x-x---|<---Alt. x 
A|-9--xx-xxx-xxx-xxx--2-x-xxx--5-xx-19191919--|       7
E|-7--xx-xxx-xxx-xxx--0-x-xxx--3-xx-----------|

e|--------------------------------------|
B|--------------------------------------|       
G|-------4444444------------------------|               
D|-9--xx-xxxxxxx-2-x-xxx--5-------------| 
A|-9--xx-xxxxxxx-2-x-xxx--5-------------|               
E|-7--xx---------0-x-xxx--3-------------|


[Solo]

|------------------------------------------------------------------------|
|-1515151515151515-14141414-12121212-7-7-7-7-7-7-7-7--8-8-8-8--7-7-7-7---|
|------------------------------------------------------------------------| 
|-1212121212121212-11111111-9-9-9-9--4-4-4-4-4-4-4-4--5-5-5-5--4-4-4-4---|
|------------------------------------------------------------------------|
|------------------------------------------------------------------------|

|-------------------------------------------------------------------------|
|-1515151515151515-14141414-17171717-1919191919191919-2222222222222222bv\-|
|-------------------------------------------------------------------------|
|-1212121212121212-11111111-14141414-1616161616161616-1919191919191919bv\-|
|-------------------------------------------------------------------------|
|-------------------------------------------------------------------------|
-
e|-----------------------------------|
B|-----------------------------------|
G|-----------------------------------|
D|-2-2-xxx-2-2--2-5------------------|
A|-2-2-xxx-2-2--2-5------------------|
E|-0-0-xxx-0-0--0-3------------------|


[Chorus II]

e|--------------------------------------------------------|
B|--------------------------------------------------------|
G|-88888888--1111111111111111--88888888--1111111111111111-|
D|-99999999--1212121212121212--99999999--1212121212121212-|
A|-99999999--1212121212121212--99999999--1212121212121212-|
E|-77777777--1010101010101010--77777777--1010101010101010-|

e|-------------------------------------------------|
B|-88888888--77777777--88888888--------------------|
G|-99999999--77777777--99999999---77-66-10/11------|
D|-99999999--xxxxxxxx--99999999---xx-xx-x----------|
A|-77777777--55555555--77777777---55-44-8/9--------|
E|-------------------------------------------------|
-
e|--------------------------------------------------------|
B|--------------------------------------------------------|
G|-88888888--1111111111111111--88888888--1111111111111111-|
D|-99999999--1212121212121212--99999999--1212121212121212-|
A|-99999999--1212121212121212--99999999--1212121212121212-|
E|-77777777--1010101010101010--77777777--1010101010101010-|

e|------------------------------------------------------------|
B|-8-8--8-8--8---7-7--7-7--7---8-8--8-8--8--------------------|
G|-9-9--9-9--9---7-7--7-7--7---9-9--9-9--9---77-66-10/11------|
D|-9-9--9-9--9---x-x--x-x--x---9-9--9-9--9---xx-xx-x----------|
A|-7-7--7-7--7---5-5--5-5--5---7-7--7-7--7---55-44-8/9--------|
E|------------------------------------------------------------|

Solo-Credit:[doobidoo]

| bv bend up
| /  slide up
| \  slide down
| h  hammer-on
| p  pull-off
| ~  vibrato
| +  harmonic
| x  Mute note
Suggest correction
comments
print report bad tab
3 comments total.
+1 reply
doobidoo 5,838 Aug 19, 2009 10:42 PM

e|-----------------------------------------------------------------|
B|-----------------------------------------------------------------|
G|-8-8--8-8--8---11-11--11-11--11---8-8--8-8--8---11-11--11-11--11-|
D|-9-9--9-9--9---12-12--12-12--12---9-9--9-9--9---12-12--12-12--12-|
A|-9-9--9-9--9---12-12--12-12--12---9-9--9-9--9---12-12--12-12--12-|
E|-7-7--7-7--7---10-10--10-10--10---7-7--7-7--7---10-10--10-10--10-|

should be

e|-----------------------------------------------------------------|
B|-----------------------------------------------------------------|
G|-7-7--7-7--7---11-11--11-11--11---7-7--7-7--7---11-11--11-11--11-|
D|-9-9--9-9--9---12-12--12-12--12---9-9--9-9--9---12-12--12-12--12-|
A|-9-9--9-9--9---12-12--12-12--12---9-9--9-9--9---12-12--12-12--12-|
E|-7-7--7-7--7---10-10--10-10--10---7-7--7-7--7---10-10--10-10--10-|

B is diffrent from Bm...:)

0 reply
paramore-crazy 10 Sep 26, 2009 01:39 PM

thankyou so much for posting this!!! I've been trying to find a standard tuning ignorance for ages then i found this :D
You've made me so excited thanks!!! XD

+1 reply
elleild 121 May 15, 2010 09:11 AM

I find it easier to play it like this in the intro, looks more badass too but in the chorus he plays it like you wrote it.
e|---------------------------|
B|---------------------------|
G|---77-77-7--9-9--9-9--9----|
D|---99-99-9--7-7--7-7--7----| x2
A|---99-99-9--7-7--7-7--7----|
E|---77-77-7--1010-1010-10---|

Then (this is how you play like josh)
e|------------------------|-------------|
B|-----------33-33-3------|-------------|
G|--44-44-4--xx-xx-x------|-------------|
D|--55-55-5--44-44-4--(x2)|-------------|
A|--55-55-5--55-55-5------|-55-44-------|
E|--33-33-3---------------|-------5-2---|

Also, taylor plays this
e|---------------------------|
B|---33-33-3--1010-1010-10---|
G|---44-44-4--1111-1111-11---|
D|---------------------------| x2
A|---------------------------|
E|---------------------------|

e|---------------------------|-1010-99--------|
B|---88-88-8--77-77-7--------|---------10-7~--|
G|---99-99-9--77-77-7--------|----------------|
D|---------------------(x2)--|----------------|
A|---------------------------|----------------|
E|---------------------------|----------------|

guest
You may want to rate the tab now too:
select rating
Wanna post a correction for this tab? Suggest correction