Oops, an error
Loading. Please wait.

Ignorance Tab

version 4
version 4
11,162 views 3 this week
1 commentread comment
1 2 3 4 5
worth learning
x 4
add to favorites
launch autoscroll
font size
0
reset
how to read this tab
guitar tuner
Autoscroll
slow
fast
+/-
esc
set tempo
stop
Help us to improve Ultimate-Guitar.com Take our survey!
×
Author
Tuning
D A D G B E
Intro/ Chorus

e|----------------------10-10-9-9-------|
B|--------------------------------10-7--|
G|--4--7--4--7-----7--------------------|
D|--4--7--4--7--5--7--5-----------------|
A|--2--5--2--5--5--5--5-----------------|
D|--------------5-----5-----------------|
 
e|----------------------10-10-9-9-------|
B|--------------------------------10-7--|
G|--4--7--4--7--9--7--9-----------------|
D|--4--7--4--7--9--7--9-----------------|
A|--2--5--2--5--7--5--7-----------------|
D|--------------------------------------|


Verse
(part1)
e|-------------------------------|
B|-------------------------------|
G|-----4-----4--------4-----4----|
D|---4-----4---4----4-----4---4--|2x
A|-2--------------2--------------|
D|-------------------------------|

e|----------------------------------------------------------------------|
B|----------------------------------------------------------------------|
G|-----4-----4--------4----4--------------------------------------------|
D|---5-----5---5----5----5---5---------7-----7----------5-----5---------|
A|-----------------------------------5-----5---5------4-----4---4-------|
D|-2---------------2----------------5---------------4-------------------|


(part 2)
e|---------------------------------|
B|---------------------------------|
G|-----4---4------------4--4-------|
D|---4---4---4-4-4----4---4--4-4-4-|2x
A|-2----------------2--------------|
D|---------------------------------|

e|--------------------------------------------------------------------|
B|--------------------------------------------------------------------|
G|-----4---4-----------4---4------------------------------------------|
D|---5---5---5-5-5---5---5---5-5-5-------7---7------------5---5-------|
A|-------------------------------------5---5---5-5-5----4---4---4-4-4-|
D|-2----------------2----------------5----------------4---------------|

Second time the end 4 gradually gets louder.


(part 3)
e|-------------------------------|
B|-------------------------------|
G|--4-444----------4-444---------|
D|--------4-4-4----------4-4-4---|2x
A|-2-------------2---------------|
D|-------------------------------|

e|----------------| ----------------------------------------|
B|----------------| ----------------------------------------|
G|---4-444--------| ----------------------------------------|
D|---------5-5-5--|2x ----7-777------------5----------------|
A|----------------| -----------5-5-5-5--------4-4-4/5-5-5---|
D|-2--------------| ---5-----------------4------------------|


E|---------------------------|
B|---------------------------|
G|---------------------------|
D|---2-2--x-x-x--2-2-2--5~---|
A|---2-2--x-x-x--2-2-2--5~---|
D|---2-2--x-x-x--2-2-2--5~---|


*Chorus*

Post Chorus:

E|----------------------------------------------------------------------|
B|----------------------------------------------------------------------|
G|----4-4----------------4-4-------------4-4----------------------------|
D|--------4-4-4--------------4-4-4-----------5-5-5-----------7-7--------|
A|--2---------------0-2-2----------------------------------------5-5-5--|
D|-------------------------------------2---------------0h5-5------------|


*2nd Verse* - play part 2

*Chorus*

Bridge:

E|--------------------------------------|
B|--------------------------------------|
G|--4~--x--------x--------x-x-9-9-9-7-7-|
D|--4~--x----2~--x----5~--x-x-x-x-x-x-x-|
A|--2~--x----2~--x----5~--x-x-7-7-7-5-5-|
D|-----------2~-------5~----------------|

E|---------------------------|
B|---------------------------|
G|--4~--x-------x------------|
D|--4~--x---2~--x-----5~-x---|
A|--2~--x---2~--x-----5~-x---|
D|----------2~--------5~-x---|

Solo: Tremolo picked

|----------------------------------------17-----------|
|-15--14--12--7--8--7----15--14--17--19---------------|
|----------------------------------------14-----------|
|-12--11--9---4--5--4----12--11--14--16---------------|
|-----------------------------------------------------|
|------------------------------------------------rc---|

*Chorus*
Suggest correction
What's this?
You can suggest a correction to this tab. Community and Mods will review your correction and vote to approve or reject it.
comments
print report bad tab
1 comment total.
-1 reply
theDumb12 41 wrote on August 31 2010, 04:27 pm

This song is tuned in Drop C# like most of Paramore's music, not in drop D.

guest
You may want to rate the tab now too:
select rating
Please do not post tabs as comments. Select "correction" instead!