Oops, an error
Loading. Please wait.
We have an official Ignorance tab made by UG professional guitarists. Check out the tab »
×
2,549 views 6 this week
1 commentread comment
1 2 3 4 5
2 more votes to show rating
add to favorites
×
Save as Personal and add changes to this tab that will be seen only by you. Learn more ›
×
You can save this tab as Personal to edit and correct it or add notes. All changes will be seen only by you. Learn more »
launch autoscroll
font size
0
reset
guitar tuner
backing track
0:00
0:00
edit
Autoscroll
slow
fast
+/-
esc
set tempo
stop
Ignorance - Paramore
Tabbed by: JabyMason
Tuning: DADG (low to high)

This is how i play the song and how i think it goes, I hope you enjoy it,
 the only tricky bit some of you may find is the pre-chorus, but it may not 
be right, but it sounds good with the song to me, and my ear has not failed
 me yet.


Bass Slides in Intro (0:06)

G|-----------------------|
D|-----------------------|
A|-----------------------|
D|-10/--10/---10/--10/---| 

G|-------------|
D|-------2h4---|
A|--5544-------|
D|-------------|

G|------------------------------------------------------------------|
D|---------------------------------------------------------------2h4|
A|22-22-2--------22-22-2-----------------------------------55-44----|
D|-------00-00-0--------00-00-0-55-55-5h7-44-44-4--55-55-5----------|

VERSE (Come in when hayley sings: Where's your gavel...)

G|------------------------------------------------------|
D|------------------------------------------------------|
A|22-22--22-22--22-22--22-22----------------------------|
D|---------------------------22-22--22-22--55-55--44-44-|


PRE CHORUS (Played when hayley sings: Don't wanna hear your sad songs...)

G|----------------------------------------------------------|
D|----------------------------------------------------------|
A|----7975---7975---7975---7975-----------------------------|
D|-999----999----999----999-----22-22--22-22--55-55--44-44--| X2

G|---------|
D|---------|
A|---------|
D|-22-22-45|


CHORUS 1 (Well, you treat me just like...)

G|------------------------------------------------------------------|
D|---------------------------------------------------------------2h4|
A|22-22-2--------22-22-2-----------------------------------55-44----|
D|-------00-00-0--------00-00-0-55-55-5h7-44-44-4--55-55-5----------|

G|------------------------------------------------------------------|
D|---------------------------------------------------------------2h4|
A|2222222--------2222222-----------------------------------55-44----|
D|-------0000000--------0000000-5555555h7444444--5555555------------|

Break while hayley sings "Ignorance is your new best friend..."

Verse (Come in at the start of this verse)

G|------------------------------------------------------|
D|------------------------------------------------------|
A|22-22--22-22--22-22--22-22----------------------------|
D|---------------------------22-22--22-22--55-55--44-44-| X2


Pre Chorus Again (Played when hayley sings: Don't wanna hear your sad songs...)

G|----------------------------------------------------------|
D|----------------------------------------------------------|
A|----7975---7975---7975---7975-----------------------------|
D|-999----999----999----999-----22-22--22-22--55-55--44-44--| X2

G|---------|
D|---------|
A|---------|
D|-22-22-45|


CHORUS (Well, you treat me just like...)

G|------------------------------------------------------------------|
D|---------------------------------------------------------------2h4|
A|22-22-2--------22-22-2-----------------------------------55-44----|
D|-------00-00-0--------00-00-0-55-55-5h7-44-44-4--55-55-5----------|

G|------------------------------------------------------------------|
D|---------------------------------------------------------------2h4|
A|2222222--------2222222-----------------------------------55-44----|
D|-------0000000--------0000000-5555555h7444444--5555555------------|

                                       _
"Ignorance is your new best friend..."  |
G|----------------------------------|   |
D|----------------------------------|    > You can play this with the guitar
A|2--------------2------------------|   |  or do the same as before and take
D|-----2----5--------2-----5-55-5-55|  _|  a BREAK

                                        
Guitar Solo
G|-------------------------------------------------------------------|
D|-------------------------------------------------------------------|
A|2222222222222222---------00000000-2222222222222222--------00000000-|
D|----------------55555555--------------------------55555555---------|

G|----------|
D|----------|
A|----------|
D|-22-22-45-|


Final Chorus

G|------------------------------------------------------------------|
D|---------------------------------------------------------------2h4|
A|22-22-2--------22-22-2-----------------------------------55-44----|
D|-------00-00-0--------00-00-0-55-55-5h7-44-44-4--55-55-5----------|

G|------------------------------------------------------------------|
D|---------------------------------------------------------------2h4|
A|2222222--------2222222-----------------------------------55-44----|
D|-------0000000--------0000000-5555555h7444444--5555555------------|


I hope that this is correct, just comment below and let me know, being ive
tabbed it by ear there may be a couple incorrect parts but im happy to take
corrections if you find any and as i said, im not 100% sure on the pre-
chorus but thats how i like to play it cause it sounds good. 

Hope you enjoyed =]

            
            
Suggest correction
Creating personal tab
Creating personal tab
You can edit any tab online and save it as your Personal.

You can edit, replace or remove any tab part or add personal notes – all changes will be seen only by you.

Personal tabs can be accessed anytime from any device, even offline.
Learn more »
Give kudos to tab author, rate the tab!
1 2 3 4 5
comments
print report bad tab
1 comment total.
0 reply
Peacemaker21 37 Oct 09, 2009 03:14 PM

Ok, Ver 7 is better than your's JabyMason for three reasons: The tuning, you should've know that this song was in this tuning because pretty much all of their other songs in this tuning, You don't have a slide at the end of the first verse, and pretty much all of the number counts in the 2nd part of the chorus are off

guest
You may want to rate the tab now too:
select rating
Wanna post a correction for this tab? Suggest correction