Oops, an error
Loading. Please wait.

Ignorance Tab

version 5
version 5
31,135 views 45 this week
1 commentread comment
1 2 3 4 5
x 8
add to favorites
launch autoscroll
font size
0
reset
how to read this tab
guitar tuner
Autoscroll
slow
fast
+/-
esc
set tempo
stop
Help us to improve Ultimate-Guitar.com Take our survey!
×
Author
Disclaimer: This tab came from no other sources but watching live performances. I had to 
use my ear for some parts, but I still think this is very accurate.

Note: This is the lead guitar part.


[Intro]

e|--------------------------------------------------------------------|
B|-77-77-7--7-7--7-7--7---------------33-33-3-------------------------|
G|-77-77-7--7-7--7-7--7------44-44-4--x--xx-x-44-44-4-----------------|
D|-99-99-9--7-7--7-7--7--2x--55-55-5--44-44-4-55-55-5-----------------|
A|-99-99-9--9-9--9-9--9------55-55-5--55-55-5-55-55-5--55-44----------|
E|-77-77-7--1010-1010-10-----33-33-3----------33-33-3--------5---2----|(x2)


[Verse 1]

 (palm mute)
e|-------------------------------|
B|-------------------------------|
G|-------------------------------|
D|-----9-----9--------9-----9----|
A|---9-----9---9----9-----9---9--|
E|-7--------------7--------------|(x2)

e|----------------------------------------------------------------|
B|----------------------------------------------------------------|
G|----------------------------------------------------------------|
D|------9---9--------9---9--------7----------7---7---7------------|
A|---10--10--10---10--10--10----5----------5---5---5---5----------|
E|-0------------0-------------3---------3-------------------------|

e|-------------------------------|
B|-------------------------------|
G|-------------------------------|
D|-----9---9--9--9---9---9--9----|
A|---9---9--9---9--9---9---9--9--|
E|-7-----------------------------|(x2)

e|----------------------------------------------------------------|
B|----------------------------------------------------------------|
G|----------------------------------------------------------------|
D|-----9--9--9------9--9--9-------7-7-7----7-7-7------------------|
A|---10-10-10-10--10-10-10-10----5-5-5-5--5-5-5-5-----------------|
E|-0-------------0-------------3---------3------------------------|

e|-------------------------------|
B|-------------------------------|
G|-------------------------------|
D|---9-x-9----------9-x-9--------|
A|---------999------------999----|
E|-7-------------7---------------|(x2)


e|-------------------------------------------------------------|
B|-------------------------------------------------------------|
G|-------------------------------------------------------------|
D|---9-x-9----------9-x-9----------7-x-7----------7-x-7--------|
A|---------101010--------101010-----------555-------------555--|
E|-0--------------0--------------3--------------3--------------|

e|-----------------------|
B|-----------------------|
G|-----------------------|
D|-22-xxx-2-2---2-5------|
A|-22-xxx-2-2---2-5------|
E|-00-xxx-0-0---0-3------|


[Chorus]

e|--------------------------------------------------------------------|
B|-77-77-7--7-7--7-7--7---------------33-33-3-------------------------|
G|-77-77-7--7-7--7-7--7------44-44-4--x--xx-x-44-44-4-----------------|
D|-99-99-9--7-7--7-7--7--2x--55-55-5--44-44-4-55-55-5-----------------|
A|-99-99-9--9-9--9-9--9------55-55-5--55-55-5-55-55-5--55-44----------|
E|-77-77-7--1010-1010-10-----33-33-3----------33-33-3--------5---2----|

e|--------------------------------------------------------------------|
B|-7777777----------------------------33-33-3-------------------------|
G|-7777777-11111111111111----44-44-4--x--xx-x-44-44-4-----------------|
D|-9999999-12121212121212-2X-55-55-5--44-44-4-55-55-5-----------------|
A|-9999999-12121212121212----55-55-5--55-55-5-55-55-5--55-44----------|
E|-7777777-10101010101010----33-33-3----------33-33-3--------5---2----|


 "Ignorance is your new best friend"
e|-------------------------------|
B|-------------------------------|
G|-------------------------------|
D|---9-x-9----------9-x-9--------|
A|---------999------------999----|
E|-7-------------7---------------|(x2)

e|-------------------------------------------------------------|
B|-------------------------------------------------------------|
G|-------------------------------------------------------------|
D|---9-x-9--------9-x-9-----------7-x-7------------------------|
A|--------101010--------101010-----------555-------------------|
E|-0-------------0--------------3------------------------------|

REPEAT VERSE

REPEAT CHORUS

 "Ignorance is your new best friend"...
e|--------------------------------------|
B|--------------------------------------|
G|--------------------------------------|
D|-9-xx-xxx-xxx-xxx2-xx-xxx5-xx-xxxx----|
A|-9-xx-xxx-xxx-xxx2-xx-xxx5-xx-xxxx----|
E|-7-xx-xxx-xxx-xxx0-xx-xxx3-xx-xxxx----|

e|-----------------------------------|
B|-----------------------------------|
G|-----------------------------------|
D|-9-xx-xxxxx-2-xx-xxx5--xx-xx-5555--|
A|-9-xx-xxxxx-2-xx-xxx5--xx-xx-5555--|
E|-7-xx-xxxxx-0-xx-xxx3--xx-xx-3333--|

Repeat chorus till the end.



************************************

| x  Dead note

************************************
Suggest correction
comments
print report bad tab
1 comment total.
0 reply
mano.chiqui 30 Sep 21, 2010 02:58 PM

great tab man! this is really how they play it :)
5*

guest
You may want to rate the tab now too:
select rating
Wanna post a correction for this tab? Suggest correction