Oops, an error
Loading. Please wait.

Ignorance Tab

version 5
version 5

Intro

Interactive

Video

27,170 views 60 this week
1 commentread comment
1 2 3 4 5
excellent!
x 7
add to favorites
launch autoscroll
font size
0
reset
how to read this tab
guitar tuner
Tab Pro tools
  • play this tab
  • loop segment
  • change instrument
  • show fretboard
  • metronome
Autoscroll
slow
fast
+/-
esc
set tempo
stop
Contributor
Disclaimer: This tab came from no other sources but watching live performances. I had to 
use my ear for some parts, but I still think this is very accurate.

Note: This is the lead guitar part.

Intro:
|--------------------------------------------------------------------|
|-77-77-7--7-7--7-7--7---------------33-33-3-------------------------|
|-77-77-7--7-7--7-7--7------44-44-4--x--xx-x-44-44-4-----------------|2X
|-99-99-9--7-7--7-7--7--2x--55-55-5--44-44-4-55-55-5-----------------|
|-99-99-9--9-9--9-9--9------55-55-5--55-55-5-55-55-5--55-44----------|
|-77-77-7--1010-1010-10-----33-33-3----------33-33-3--------5---2----|

Verse 1:
(PALM MUTE)
|-------------------------------|
|-------------------------------|
|-------------------------------|
|-----9-----9--------9-----9----|2x
|---9-----9---9----9-----9---9--|
|-7--------------7--------------|

|----------------------------------------------------------------|
|----------------------------------------------------------------|
|----------------------------------------------------------------|
|------9---9--------9---9--------7----------7---7---7------------|
|---10--10--10---10--10--10----5----------5---5---5---5----------|
|-0------------0-------------3---------3-------------------------|

|-------------------------------|
|-------------------------------|
|-------------------------------|
|-----9---9--9--9---9---9--9----|2x
|---9---9--9---9--9---9---9--9--|
|-7-----------------------------|

|----------------------------------------------------------------|
|----------------------------------------------------------------|
|----------------------------------------------------------------|
|-----9--9--9------9--9--9-------7-7-7----7-7-7------------------|
|---10-10-10-10--10-10-10-10----5-5-5-5--5-5-5-5-----------------|
|-0-------------0-------------3---------3------------------------|

|-------------------------------|
|-------------------------------|
|-------------------------------|
|---9-x-9----------9-x-9--------|2x
|---------999------------999----|
|-7-------------7---------------|


|-------------------------------------------------------------|
|-------------------------------------------------------------|
|-------------------------------------------------------------|
|---9-x-9----------9-x-9----------7-x-7----------7-x-7--------|
|---------101010--------101010-----------555-------------555--|
|-0--------------0--------------3--------------3--------------|

|-----------------------|
|-----------------------|
|-----------------------|
|-22-xxx-2-2---2-5------|
|-22-xxx-2-2---2-5------|
|-00-xxx-0-0---0-3------|

Chorus:
|--------------------------------------------------------------------|
|-77-77-7--7-7--7-7--7---------------33-33-3-------------------------|
|-77-77-7--7-7--7-7--7------44-44-4--x--xx-x-44-44-4-----------------|
|-99-99-9--7-7--7-7--7--2x--55-55-5--44-44-4-55-55-5-----------------|
|-99-99-9--9-9--9-9--9------55-55-5--55-55-5-55-55-5--55-44----------|
|-77-77-7--1010-1010-10-----33-33-3----------33-33-3--------5---2----|

|--------------------------------------------------------------------|
|-7777777----------------------------33-33-3-------------------------|
|-7777777-11111111111111----44-44-4--x--xx-x-44-44-4-----------------|
|-9999999-12121212121212-2X-55-55-5--44-44-4-55-55-5-----------------|
|-9999999-12121212121212----55-55-5--55-55-5-55-55-5--55-44----------|
|-7777777-10101010101010----33-33-3----------33-33-3--------5---2----|

"Ignorance is your new best friend"
|-------------------------------|
|-------------------------------|
|-------------------------------|
|---9-x-9----------9-x-9--------|2x
|---------999------------999----|
|-7-------------7---------------|

|-------------------------------------------------------------|
|-------------------------------------------------------------|
|-------------------------------------------------------------|
|---9-x-9--------9-x-9-----------7-x-7------------------------|
|--------101010--------101010-----------555-------------------|
|-0-------------0--------------3------------------------------|

REPEAT VERSE

REPEAT CHORUS

"Ignorance is your new best friend"...
|--------------------------------------|
|--------------------------------------|
|--------------------------------------|
|-9-xx-xxx-xxx-xxx2-xx-xxx5-xx-xxxx----|
|-9-xx-xxx-xxx-xxx2-xx-xxx5-xx-xxxx----|
|-7-xx-xxx-xxx-xxx0-xx-xxx3-xx-xxxx----|

|-----------------------------------|
|-----------------------------------|
|-----------------------------------|
|-9-xx-xxxxx-2-xx-xxx5--xx-xx-5555--|
|-9-xx-xxxxx-2-xx-xxx5--xx-xx-5555--|
|-7-xx-xxxxx-0-xx-xxx3--xx-xx-3333--|

Repeat chorus til the end.
comments
print report bad tab
1 comment total.
0 reply
mano.chiqui wrote on September 21 2010, 02:58 pm

great tab man! this is really how they play it :)
5*

I want to post or [tab]
guest
You may want to rate the tab now too:
select rating
Please do not post tabs as comments. Select "correction" instead!