Oops, an error
Loading. Please wait.

Ignorance Tab

version 7
version 7

Intro

Interactive

Video

11,129 views 18 this week
no commentswrite comment
1 2 3 4 5
please rate
add to favorites
launch autoscroll
font size
0
reset
how to read this tab
guitar tuner
Tab Pro tools
  • play this tab
  • loop segment
  • change instrument
  • show fretboard
  • metronome
Autoscroll
slow
fast
+/-
esc
set tempo
stop
Contributor
Aca les dejo la tablatura de ignorance,
esta es la version acustica..la saque del mtv unplugged
y es la guitarra de josh...luego les subire la tablatura de taylor
igual que como la toca en el mtv unplugged...espero les guste :)


INTRO!
/-----------------------------------------------|
/-----------------------------------------------|
/-----------------------------------------------|  x2
/----9-9---9-9-9----12-12----12-12-12-----------|
/----9-9---9-9-9----12-12----12-12-12-----------|
/----7-7---7-7-7--- 10-10----10-10-10-----------|

/-----------------------------------------------------------------------|
/-----------------------------------------------------------------------|
/----4-4---4-4-4------3-3---3-3-3-----4-4----4-4-4----------------------|
/----5-5---5-5-5------4-4---4-4-4-----5-5----5-5-5----------------------|
/----5-5---5-5-5------5-5---5-5-5-----5-5----5-5-5-------5-5-4-4-7-9----|
/----3-3---3-3-3------x-x---x-x-x-----3-3----3-3-3----------------------|

Todo lo de arriba se repite 2 veces :D

Ahora en el 1er verso de:
If I'm a bad person, you don't like me
Well, I guess I'll make my own way
It's a circle, a mean cycle
I can't excite you anymore

Vas a tocar esto:
/-------------------------| lo tocas mientras Hayley canta: If I'm a bad person
/-------------------------| you dont like me Well, I guess I'll make my own way
/-------------------------|    (creo que lo repetis  4 o 3 veces:D)
/---------9----9----------|
/------9----9----9--------|
/---7---------------------|

/----------------------------------|  esto lo tocas mientras Hayley canta:
/----------------------------------|     It's a circle, a mean cycle
/----------------------------------|   solo 2 veces se repite
/---------9-----9------------------|
/-----10---10----10----------------|
/--0-------------------------------|

/---------------------------------------|     esto lo tocas mientras Hayley canta:
/---------------------------------------|      I can't excite you anymore
/---------------------------------------|      solo lo repetis 2 veces :D
/----------7----7-----------------------|
/------5-----5----5---------------------|
/---5-----------------------------------|

Ahora en el 2do verso
Where's your gavel? Your jury?
What's my offense this time?
You're not a judge but if you're gonna judge me
Well, sentence me to another life

/-----------------------------|      esto lo tocas cuando hayley canta:
/-----------------------------| x4    Where's your gavel? Your jury?
/-----------------------------|       What's my offense this time?
/---------9------9------------|
/------9-----9------9-----9---|
/---7-------------------7-----|

/-------------------------------|       lo tocas cuando Hayley canta:
/-------------------------------| x2    You're not a judge but if
/-------------------------------|         you're gonna judge me
/----------9-----9--------------|
/------10-----10----10-----10---|
/---0--------------------0------|

/----------------------------|             lo tocas cuando Hayley canta:
/----------------------------|              Well, sentence me to another life
/----------------------------| x2
/---------7-----7------------|
/------5-----5-----5----5----|
/---5-----------------5------|

Ahora en el 3er y 4to verso:
Don't wanna hear your sad songs
I don't wanna feel your pain
When you swear it's all my fault
'Cause you know we're not the same
No, we're not the same, oh, we're not the same

We're the friends who stuck together
We wrote our names in blood
But I guess you can't accept that the change is good
It's good, it's good


/-------------------------------|       se toca cuando Hayley canta:
/-------------------------------|       Don't wanna hear your sad songs
/-------------------------------|       I don't wanna feel your pain
/------9xx9---------------------|       When you swear it's all my fault
/-------------9-9-9-------------|       'Cause you know we're not the same
/--7----------------------------|

/--------------------------|       se toca cuando Hayley canta:
/--------------------------|          No, we're not the same
/--------------------------|  x2
/----9xx9------------------|
/------------101010--------|
/-0------------------------|

/-----------------------------------|              se toca cuando Hayley canta:
/-----------------------------------|              oh, we're not the same
/-----------------------------------|
/------7xx7-------------------------|
/-------------555-------------------|
/--5--------------------------------|

/------------------------------------|           se toca cuando Hayley canta:
/------------------------------------|           We're the friends who stuck together
/------------------------------------|            We wrote our names in blood
/------9xx9--------------------------|             But I guess you can't accept that
/-------------9-9-9------------------|             the change is
/--7---------------------------------|

/----------------------|
/----------------------|        good It's good
/----------------------|
/----9xx9--------------|
/------------101010----|
/-0--------------------|

/-------------------|           se toca cuando Hayley canta:
/-------------------|           it's gooooooood...
/-------------------|
/------7xx7---------|
/-------------555---|
/--5----------------|

/-------------------------|
/-------------------------|
/-------------------------|
/---2-2---x-x-x---2-2-5---|
/---2-2---x-x-x---2-2-5---|
/---0-0---x-x-x---0-0-3---|

Coro:
Aqui tocas lo mismo que tocas en la intro ...


Ahora la parte que dice:
 Ignorance is your new best friend
Ignorance is your new best friend..tocas lo de abajo

/-------------------------------------------------------------------------|
/-------------------------------------------------------------------------|
/-------------------------------------------------------------------------|
/-----9xx9----------9xx9-------------9xx9------------------7xx7-----------|
/------------999-----------999-------------101010----------------555------|
/--7---------------7---------------0--------------------5-----------------|

Verso
This is the best thing that could've happened
Any longer and I wouldn't have made it
It's not a war, no, it's not a rapture
I'm just a person but you can't take it

/------------------------------|
/------------------------------| x4    esto lo tocas cuando hayley canta:
/------------------------------|       This is the best thing that could've
/---------9------9-------------|       happened
/------9-----9------9-----9----|       Any longer and I wouldn't
/---7-------------------7------|        have made it

/-------------------------------|
/-------------------------------| x2    It's not a war, no, it's not a rapture
/-------------------------------|
/-----------9------9------------|
/------10-----10----10-----10---|
/---0-------------------0-------|

/----------------------------|
/----------------------------| x2     I'm just a person but you can't take it
/----------------------------|
/---------7-----7------------|
/------5-----5-----5----5----|
/---5-----------------5------|

/------------------------------|
/------------------------------| x4   The same tricks that, that once
/------------------------------|       fooled me They won't get you
/---------9------9-------------|       anywhere
/------9-----9------9------9---|
/---7-------------------7------|

/-----------------------------------|
/-----------------------------------| x2   I'm not the same kid
/-----------------------------------|         from your memory
/----------9-------9----------------|
/------10------10-----10------10----|
/---0----------------------0--------|

 /-------------------------|
/--------------------------|    x2
/--------------------------|
/--------7----7------------|
/-----5-----5----5----5----|
/---5---------------5------|


El verso Don't wanna hear your sad songs…se toca igual que como esta arriba :D

Ahora viene el coro…que es igual que el intro

Luego viene…
Ignorance is your new best friend

/--------------------------------/-------------------------------|
/--------------------------------/-------------------------------|
/--------------------------------/-------------------------------|
/---9-x-x----2-x-x----5-x-x------/---9-x-x----2-x-x----5-5-5-5---|
/---9-x-x----2-x-x----5-x-x------/---9-x-x----2-x-x----5-5-5-5---|
/---7-x-x----0-x-x----3-x-x------/---7-x-x----0-x-x----3-3-3-3---|


Ahora viene el solo…no estoy segura como va!!=P..espero que sea asi:

|------------------------------------------------------------------------|
|-1515151515151515-14141414-12121212-7-7-7-7-7-7-7-7--8-8-8-8--7-7-7-7---|
|------------------------------------------------------------------------|
|-1212121212121212-11111111-9-9-9-9--4-4-4-4-4-4-4-4--5-5-5-5--4-4-4-4---|
|------------------------------------------------------------------------|
|------------------------------------------------------------------------|

|-------------------------------------------------------------------------|
|-1515151515151515-14141414-17171717-1919191919191919-2222222222222222bv\-|
|-------------------------------------------------------------------------|
|-1212121212121212-11111111-14141414-1616161616161616-1919191919191919bv\-|
|-------------------------------------------------------------------------|

Luego blah blah se repite otra vez el coro y Listo!! :D
comments
We did not receive enough feedback on this tab! Please rate:
print report bad tab
1 2 3 4 5
I want to post or [tab]
guest
You may want to rate the tab now too:
select rating
Please do not post tabs as comments. Select "correction" instead!