Oops, an error
Loading. Please wait.

Let The Flames Begin Tab

version 1
version 1

Whole song

Interactive

19,247 views 12 this week
2 commentsread comments
1 2 3 4 5
accurate
x 8
add to favorites
launch autoscroll
font size
0
reset
how to read this tab
guitar tuner
Autoscroll
slow
fast
+/-
esc
set tempo
stop
Help us to improve Ultimate-Guitar.com Take our survey!
×
Contributor
Difficulty
Tuning
Tabbers playing skills
doobidoo 8,711
intermediate
C# G# C# F# A# D#
advanced +
PLS LIKE OUR BAND FAN PAGE @ FACEBOOK - https://www.facebook.com/SinceAstrid

Tabbed By Francis Twister
From Paramore Philippines(PARAWHORE)

Call/txt me::)09235320353
Drop C#
Intro-
GtrI
|------------------------------------|------------------------------------|
|-8~(32x)-11~(16x)--13~(8x)--15~(8x)-|-8~(32x)-11~(16x)--13~(8x)--15~(8x)-|
|------------------------------------|------------------------------------|
|------------------------------------|------------------------------------|
|------------------------------------|------------------------------------|
|------------------------------------|------------------------------------|

GtrII i just estmated the times taylor hit the gtr...:)
|------------------------------------------------------------------------|
|------------------------------------------------------------------------|
|-3-------7--------5----------3-------10-------8-------------------------|
|-x-(32x)-x-(16x)--x-(8x)-----x-(32x)-x-(16x)--x-(8x)--------------------|
|-1-------5--------3----------1-------8--------6-------------------------|
|------------------------------------------------------------------------|

Verse-
GtrII 2x
|----------------------------------------------------------|
|----------------------------------------------------------|
|-----7-----7----7-----7-----10------10-----10-----10------|
|--5-----5-----5----5-----8-------8------8------8----------|
|----------------------------------------------------------|
|-5-5---5-5---5-5--5-5---8-8-----8-8----8-8----8-8---------|

|----------------------------------------------------------|
|-----1-----3----1---------10--------11--------10----------|
|--1-----1-----1-------------------------------------------|
|----------------------10--------10--------10--------------|
|----------------------------------------------------------|
|-1-1---1-1---1-1----10--10----10--10----10--10------------|


then


GtrI
|----------------------------------------------------------|
|-15151515151515151515151515515151515515151515151515-------|
|----------------------------------------------------------|
|-12121212121212121212121212121212121212121212121212-------|
|----------------------------------------------------------|
|----------------------------------------------------------|
GtrII
|----------------------------------------------------------|
|----------------------------------------------------------|
|----------------------------------------------------------|
|-1-1-1-1-1-1-1-1-1-1-1-1-1-3-3-3-3-3-3-3-3----------------|
|-1-1-1-1-1-1-1-1-1-1-1-1-1-3-3-3-3-3-3-3-3----------------|
|-1-1-1-1-1-1-1-1-1-1-1-1-1-3-3-3-3-3-3-3-3----------------|

Chorus-

GtrI
|-------------------------------------------------------|
|-------------------------------------------------------|
|-----------33333333------------555555555---------------|
|-555555555-33333333-111111111--555555555---------------|3x
|-555555555-11111111-111111111--333333333---------------|
|-555555555----------111111111--------------------------|

GtrIi


|-----------------------------------------------------|
|------------------------------10^(11)10--------------|
|--------------------10----(10)-----------------------|
|--12-13-12-10----10---(10)---------------------------|
|--------------13-------------------------------------|
|-----------------------------------------------------|

|-----------------------------------------------------|
|--------------------------------10^(11)10------------|
|--------------------10-------------------------------|
|--12-13-12-10----10----10-12-10----------------------|
|--------------13-------------------------------------|
|-----------------------------------------------------|


|--------------------------------------------------------|
|------------------------------10^(11)10---10-11--10-11--|
|--------------------10----(10)--------------------------|
|--12-13-12-10----10---(10)--------------12--12-12--12---|
|--------------13----------------------------------------|
|--------------------------------------------------------|

Verse2

GtrI
|-10-------------------------------------------------------|
|------(4x)--11---(4x)----13---(4x)------------------------|
|---12---------12------------12----------------------------|
|----------------------------------------------------------|4x
|----------------------------------------------------------|
|----------------------------------------------------------|

GrtII
|-10---10---10-----10---10---10----8----8----8----8----8----8---|
|---8----8-----------8----8---------8----8---------8----8-------|
|----10---10---10-----10---10---10----10---10--10---10---10--10-|
|---------------------------------------------------------------|2x
|---------------------------------------------------------------|
|---------------------------------------------------------------|

|------6-(6)--------------|-------6-(6)----------------------|
|------------6------------|------------6------8--------------|
|-3/7------------7--5-----|-3/7------------7-----------------|
|-------------------------|----------------------------------|
|-------------------------|----------------------------------|
|-------------------------|----------------------------------|

Refrain-
Guitar1
|-------------------------------------------------------|
|-------------------------------------------------------|
|-----8~----------------10~-----------------------------|2x
|---8~-----------------10~------------------------------|
|-6~------------------8~--------------------------------|
|-------------------------------------------------------|

Guitar2-delay

|-------------------------------------------------------|
|-------------------------------------------------------|
|--10~----8~---7~---5~------7~--5~----------------------|
|-----------------------------------7~----8~------------|2x
|-------------------------------------------------------|
|-------------------------------------------------------|


Do Chorus-


Interlude-

GuitarII 4x
|-10----------------------------|  -----------|
|---8-----8---------------------|  -----------|
|------10----10-----------------|  -----------|
|----------------8--8p7h8-------|3x-7-8-s-10--|
|-------------------------10----|  -----------|
|-------------------------------|  -----------|

GtrI enters
|----------------------------------------------------------------|
|-1515151515-^(16)(16)-1515151515-^(16)(16)-1515151515-11~-10~---|
|----------------------------------------------------------------|continuous
|----------------------------------------------------------------|
|----------------------------------------------------------------|
|----------------------------------------------------------------|


GtrI

GtrIIDo chorus

GtrIdo chorus chords

GtrII Do chorus then
|-10----------------------------|  -----------|
|---8-----8---------------------|  -----------|
|------10----10-----------------|  -----------|
|----------------8--8p7h8-------|3x-7-8-s-10--|  continuous ,til interlude
|-------------------------10-10-|  -----------|
|-------------------------------|  -----------|


Interlude2-
3:43
GtrI-let rung (555xxx)
GtrII
|-10----------------------------|  -----------|
|---8-----8---------------------|  -----------|
|------10----10-----------------|  -----------|
|----------------8--8p7h8-------|3x-7-8-s-10--|  continuous
|-------------------------10-10-|  -----------|
|-------------------------------|  -----------|

do this @ 4:19
|-10-----10----10-----10-----8-----8----8-----8--------|
|----8-----8------8-----8------8-----8----8-----8------|continuos
|------10----10-----10----10-----10---10----10----10---|
|------------------------------------------------------|
|------------------------------------------------------|
|------------------------------------------------------|
then
@ 4:07
GtrI
|----------------------------------------------------------------|
|-1515151515-^(16)(16)-1515151515-^(16)(16)-1515151515-11~-10~---|
|----------------------------------------------------------------|continuous
|----------------------------------------------------------------|
|----------------------------------------------------------------|
|----------------------------------------------------------------|

.........
then..oh..father???

@4:43
GtrI-pause..then do chorus Chords @ 4:56 then end with
end with G(dropped chord)
GtrII
|------------------------------------|
|-11----10---8---8---8---------------|
|----10---10--10--10---10(c0ntinuous)|
|------------------------------------|
|------------------------------------|
|------------------------------------|

@5:16
|----1313131313-15151515-|
|------------------------|
|------------------------|
|------------------------|
|------------------------|
|------------------------|
Suggest correction What's this?
You can suggest a correction to this tab. Community and Mods will review your correction and vote to approve or reject it.
comments
print report bad tab
2 comments total.
+1 reply
guitarkoto 48 wrote on December 23 2008, 05:16 am

it's ok...

+1 reply
allyandjoshwahh 32 wrote on February 15 2010, 09:46 pm

I agree. Most is correct or close, but what does the LEAD guitar play after she says ''Oh father'' ? He plays a little riff with delay, and the one on here doesn't sound anything like it. Great tab, but please post that part, it's the only part I can't figure out. Thanks for this tab tho, 4stars =)

I want to post or [tab]
guest
You may want to rate the tab now too:
select rating
Please do not post tabs as comments. Select "correction" instead!