Oops, an error
Loading. Please wait.

Let The Flames Begin Tab

version 2
version 2

Whole song

Interactive

16,210 views 6 this week
5 commentsread comments
1 2 3 4 5
accurate
x 7
add to favorites
launch autoscroll
font size
0
reset
how to read this tab
guitar tuner
Autoscroll
slow
fast
+/-
esc
set tempo
stop
Help us to improve Ultimate-Guitar.com Take our survey!
×
Author
Tuning
Tabbers playing skills
C# G# C# F# A# D#
advanced +
PLS LIKE OUR BAND FAN PAGE @ FACEBOOK - https://www.facebook.com/SinceAstrid

Tabbed By Francis Twister
From Paramore Philippines(PARAWHORE)

Tuning- eb bb gb db Ab Db

Intro-
Guitar1
|------------------------------------------------------------------------|
|------------------------------------------------------------------------|
|----0----0----0----0---0---0---0---0----0----0----0----0----0----0----0-|
|-12---12---12---12---8---8---8---8---10---10---10---10---10---10---10---|4x
|------------------------------------------------------------------------|
|------------------------------------------------------------------------|


Guitar2 at 3rd time
|------6-(6)--------------|-------6-(6)----------------------|
|------------6------------|------------6------8--------------|
|---7------------7--5-----|---7------------7-----------------|
|-8-----------------------|-8--------------------------------|
|-------------------------|----------------------------------|
|-------------------------|----------------------------------|


Verse-

Guitar1
|------------------------------------------------------------------------|
|------------------------------------------------------------------------|
|----0----0----0----0---0---0---0---0----0----0----0----0----0----0----0-|
|-12---12---12---12---8---8---8---8---10---10---10---10---10---10---10---|4x
|------------------------------------------------------------------------|
|------------------------------------------------------------------------|


Guitar2 at 3rd time
|------6-(6)--------------|-------6-(6)----------------------|
|------------6------------|------------6------8--------------|
|---7------------7--5-----|---7------------7-----------------|
|-8-----------------------|-8--------------------------------|
|-------------------------|----------------------------------|
|-------------------------|----------------------------------|

Refrain-
Guitar1

|-------------------------------------------------------|
|-------------------------------------------------------|
|-----8~----------------10~-----------------------------|
|---8~-----------------10~------------------------------|
|-6~------------------8~--------------------------------|
|-------------------------------------------------------|

Guitar2-delay
|-------------------------------------------------------|
|--5~-3~--2~-0~----5~--3~-------------------------------|
|-----------------------------1~--2~--------------------|
|-------------------------------------------------------|
|-------------------------------------------------------|
|-------------------------------------------------------|


Chorus-
Guitar1
|-------------------------------------------------------|
|-------------------------------------------------------|
|-----------33333333------------55-5--5--5--------------|
|-555555555-33333333-111111111--55-5--5--5--------------|
|-555555555-11111111-111111111--33-3--3--3--------------|
|-555555555----------111111111--------------------------|

Guitar2
|-----------------------------------------------------|
|------------------------------10^(11)10--------------|
|--------------------10----(10)-----------------------|
|--12-13-12-10----10---(10)---------------------------|
|--------------13-------------------------------------|
|-----------------------------------------------------|

|-----------------------------------------------------|
|--------------------------------10^(11)10------------|
|--------------------10-------------------------------|
|--12-13-12-10----10----10-12-10----------------------|
|--------------13-------------------------------------|
|-----------------------------------------------------|


|--------------------------------------------------------|
|------------------------------10^(11)10---10-11--10-11--|
|--------------------10----(10)----------10--10-10--10---|
|--12-13-12-10----10---(10)------------------------------|
|--------------13----------------------------------------|
|--------------------------------------------------------|


RepeaT VERSE 1x, Refrain , Chorus2x

Interlude
Guitar2 2x
|-10----------------------------|  -----------|
|---8-----8---------------------|  -----------|
|------10----10-----------------|  -----------|
|----------------8--8p7h8-------|3x-7-8-s-10--|
|-------------------------10-10-|  -----------|
|-------------------------------|  -----------|

Repeat Chorus 2x

Outro-
Guitar2 2x
|-10----------------------------|  -----------|
|---8-----8---------------------|  -----------|
|------10----10-----------------|  -----------|
|----------------8--8p7h8-------|3x-7-8-s-10--|
|-------------------------10-10-|  -----------|
|-------------------------------|  -----------|
Suggest correction
comments
print report bad tab
5 comments total. Showing first comments.
0 reply
saroit 10 wrote on August 1 2007, 07:09 am

SouDs Perfect duDe

0 reply
saroit 10 wrote on August 1 2007, 07:10 am

SounDs Perfect duDe

0 reply
ajmoore21 82 wrote on March 1 2008, 12:28 pm

Its an A note not an Ab note in the intro and verse

guest
You may want to rate the tab now too:
select rating
Wanna post a correction for this tab? Suggest correction