Oops, an error
Loading. Please wait.

Let The Flames Begin Tab

version 3
version 3

Whole song

Interactive

10,695 views 12 this week
no commentswrite comment
1 2 3 4 5
accurate
x 4
add to favorites
launch autoscroll
font size
0
reset
how to read this tab
guitar tuner
Autoscroll
slow
fast
+/-
esc
set tempo
stop
Help us to improve Ultimate-Guitar.com Take our survey!
×
Author
yeh so this is my very first tab, so it may be hard to understand my jibber 
jabber. . . oh and before i
start i'm not gunna put down how many times you have to hit a chord because i'm guessing you want
to learn this song because you like the song and listen to it so you can figure 
that out ^^ and if you 
see something here that looks familiar, well i took bits from other tabs and added what i think 
sounds awesome so thanks. . .

rhythm:
e|---------------------------------------------------------------------|
B|----7--7--------7--7---------7--7------------------------------------|
G|--6--6---x4----------x4-------4--4---x8------------------------------|
D|--------------7--7---------------------------------------------------|
A|---------------------------------------------------------------------|
E|---------------------------------------------------------------------|

e|---------------------------------------------------------------------|
B|---------------------------------------------------------------------|
G|--7~---4~----9~------------4---7----------------7---4----------------|
D|--7~---4~----9~----4---7---4---7---or---4---7---7---4----------------|
A|--5~---2~----7~----4---7---2---5--------4---7---5---2----------------|
E|-------------------2---5----------------2---5------------------------|

now just listen for timing when to play what and the second and third chorus play that twice^

but just before it goes into the second chorus, 
e|-----------------------------------------------|
B|-----------------------------------------------| on the first 799, start to strum
G|--7~---4~---9~---7~---4~---1~------------------|before going to the next 577.
D|--7~---4~---9~---7~---4~---2~--(Em)------------|
A|--5~---2~---7~---5~---2~---2~------------------|
E| ---------------------------0~-----------------|
the strumming pattern i use is D/D/U/U/D/U/U/D/U/U.....

lead:
e|--------5----------------5----------------------------|
B|----------5----------------5---7~---------------------|
G|---4-6------6-4~----4-6------6------x2----------------|
D|------------------------------------------------------|
A|------------------------------------------------------|
E| -----------------------------------------------------|

e|---------------------------------------------------------------------|
B|--5-5-5-3-3-3-2-2-2-0-0-0-0-0-0-3-3-3-2-2-2--------------------------|
G|--------------------------------------------2-2-2-4-4-4--------------|
D|---------------------------------------------------------------------|
A|---------------------------------------------------------------------|
E| --------------------------------------------------------------------|

e|-----------------------------9-----7---------------------------------|
B|----------------------9^-------7-----7-------------------------------|
G|---6-7-6-------9---------x3------9-----9~----------------------------|
D|---------9-7-9---9-11------------------------------------------------|
A|---------------------------------------------------------------------|
E| --------------------------------------------------------------------|

e|------5--------------5-------------------------------|
B|--------5--------------5---7~------------------------|
G|--4-6-----6-4~---4-6-----6---------------------------|
D|-----------------------------------------------------|
A|-----------------------------------------------------|
E| -----------------------------------------------------|
     straight after that ^ then go on to this straight away
e|---------------------------------------------------------------------|
B|--5-5-5-3-3-3-2-2-2-0-0-0-0-0-0-3-3-3-2-2-2--------------------------|
G|--------------------------------------------2-2-2-4-4-4--x2----------|
D|---------------------------------------------------------------------|
A|---------------------------------------------------------------------|
E| --------------------------------------------------------------------|

e|-----------------------------9----7----------------------------------|
B|----------------------9^-------7---7---------------------------------|
G|---6-7-6-------9---------x3-----9---9---x2---------------------------|
D|---------9-7-9---9-11------------------------------------------------|
A|---------------------------------------------------------------------|
E| --------------------------------------------------------------------|

e|---9------------------------------------------------------------------|
B|-----7---7------------------------------------------------------------|
G|-------9---9----------------------------------------------------------|
D|-------------7\6-7------x3--6-7-9~------------------------------------|
A|-------------------9-9~-----------------------------------------------|
E| ---------------------------------------------------------------------|

e|-----------------------------9----7----------------------------------|
B|----------------------9^-------7---7---------------------------------|
G|---6-7-6-------9---------x3-----9---9~---x2--------------------------|
D|---------9-7-9---9-11------------------------------------------------|
A|---------------------------------------------------------------------|
E| --------------------------------------------------------------------|

e|---9------------------------------------------------------------------|
B|-----7---7------------------------------------------------------------|
G|-------9---9----------------------------------------------------------|
D|-------------7\6-7------x3--6-7-9~------------------------------------|
A|-------------------9-9~-----------------------------------------------|
E| ---------------------------------------------------------------------|

so there it is. . . have any questions? just comment
Suggest correction
What's this?
You can suggest a correction to this tab. Community and Mods will review your correction and vote to approve or reject it.
comments
print report bad tab
guest
You may want to rate the tab now too:
select rating
Please do not post tabs as comments. Select "correction" instead!