Oops, an error
Loading. Please wait.
We have an official Let The Flames Begin tab made by UG professional guitarists. Check out the tab »
×
996 views 3 this week
no commentswrite comment
1 2 3 4 5
3 more votes to show rating
add to favorites
×
Save as Personal and add changes to this tab that will be seen only by you. Learn more ›
×
You can save this tab as Personal to edit and correct it or add notes. All changes will be seen only by you. Learn more »
launch autoscroll
font size
0
reset
guitar tuner
backing track
0:00
0:00
edit
Autoscroll
slow
fast
+/-
esc
set tempo
stop
-------------------------------------------------------------------------------
			     Let The Flames Begin - Paramore
-------------------------------------------------------------------------------

Tabbed By : MusicMan24
e-mail: a7t1r1@hotmail.com

This song in in D flat, and...There were two fills that I couldn't
figure out, one right before the pre-chorus, and one in the bridge.


Tuning: D Flat (Db Ab Db Gb) Low to high


Intro x1  (Come in at 0:12, and those are 10's not 1's and 0's)

Gb|------------------------------------------------------------------|
Db|------------------------------------------------------------------|
Ab|------------------------------------------------------------------|
Db|535--353-8888888888888888-111-11-10101010101010101010101010101010-|


Verse x2

Gb|-----------------------------------------------------------------------------------|
Db|-----------------------------------------------------------------------------------|
Ab|-------------------------------8--6666666666666666---------------------------------|
Db|5555555555555555-88888888888888-8-----------------10101010101010101010101010101010-|


Pre-Chorus x1  (Not too sure about this part)

Gb|------------------|
Db|------------3-3h5-|
Ab|6~-----3~---------|
Db|------------------|


Chorus x1

Gb|------------------------------------------------------------------------------------|
Db|------------------------------------------------------------------------------------|
Ab|------------------------------------------------------------------------------------|
Db|5555555555555555-8888888888888888-1111111111111111-10101010101010101010101010101010-|

Verse x2


Pre-Chorus x2  (And this I'm REALLY not sure about)

Gb|----------------------|
Db|-----------3-3--3h5p3-|
Ab|6~----3~--------------|
Db|----------------------|

Chorus x2


Bridge x1

Gb|-------------------------------------------------------|
Db|--------------------------------5~-----8~----10h12p10~-|
Ab|-------------------------------------------------------|
Db|5~-----358~------1~-----10~----------------------------|

Chorus x2


Outro

Gb|--------------|
Db|--------------|
Ab|--------------|
Db|6~~~~~~~~~~~~-|


So, this is definitely not a complete tab, but I think it gives a good
idea of how the song goes


PEACE


| /  slide up
| \  slide down
| h  hammer-on
| p  pull-off
| ~  vibrato
| +  harmonic
| x  Mute note
===============================================================================

            
            
Suggest correction
Creating personal tab
Creating personal tab
You can edit any tab online and save it as your Personal.

You can edit, replace or remove any tab part or add personal notes – all changes will be seen only by you.

Personal tabs can be accessed anytime from any device, even offline.
Learn more »
Give kudos to tab author, rate the tab!
1 2 3 4 5
comments
print report bad tab
guest
You may want to rate the tab now too:
select rating
Wanna post a correction for this tab? Suggest correction