Oops, an error
Loading. Please wait.

Let The Flames Begin Tab

version 4
version 4

Whole song

Interactive

5,531 views 9 this week
2 commentsread comments
1 2 3 4 5
accurate
x 7
add to favorites
launch autoscroll
font size
0
reset
how to read this tab
guitar tuner
Autoscroll
slow
fast
+/-
esc
set tempo
stop
Help us to improve Ultimate-Guitar.com Take our survey!
×
Contributor
Difficulty
Tuning
intermediate
C# G# C# F# A# D#
Hey Guys, this is my first tab so please comment, done this in about 30mins 
but it seems all right to me :) im a big Paramore fan so if the tab is
correct Maybe ill do a few more :P

Tuning: C# G# C# F# A# D# 

(Basically Half-Step down but then you tune the lower E string to match the
 D string, so the tuning is called Drop C#)

For help with this tuning:
1. Go to http://www.howtotuneaguitar.org/
2. Wait for the online tuner to load
3. Under "Tuning Mode" change it from Standard to Drop C#
4. Start Tuning your Guitar

Key:-

x(Number) - How many times to repeat the Part

(x)
(x) x16 - Just means play the chord 16 times, obviously the x's would be     
(x)       numbers

h - Hammeron
p - Pulloff
x - Dead note
> - slide up to a note
< - slide down to a note
10^11^10 - this would mean bend from 10th fret to 11th the back to 10th.
7^8^7p5<3 - this would mean bend from 7th to 8th, back to 7th, pulloff from 7th to 
5th then slide to 3rd.
            
Guitar 1

 Intro...

|-------------------------------------------------------------------|
|-------------------------------------------------------------------|
|----0---0---0---0---0--0--0--0----0---0---0---0---0---0---0---0----|
|-12--12--12--12---8--8--8--8---10--10--10--10--10--10--10--10------|
|-------------------------------------------------------------------|
|-------------------------------------------------------------------|x4

 "What a Shame we all Became..."          

|-------------------------------------------------------------------|
|-------------------------------------------------------------------|
|----0---0---0---0---0--0--0--0----0---0---0---0---0---0---0---0----|
|-12--12--12--12---8--8--8--8---10--10--10--10--10--10--10--10------|
|-------------------------------------------------------------------|
|-------------------------------------------------------------------|x4

 "Ohh Glory...."

|-----------------------------------------------------------------|
|-----------------------------------------------------------------|
|-10-10-10-8-8-8-7-7-7-5-5-5-5-5-5-7-7-7-5-5-5-2-2-2-3-3-3-3-3-3--|
|-----------------------------------------------------------------|
|-----------------------------------------------------------------|
|-----------------------------------------------------------------|



 "This is how we'll dance when..."

|---------------------------------------------------------------------|
|---------------------------------------------------------------------|
|----------------------------(3)-The rhythm is changed on this Chord--|
|-(5)------(8)------(1)------(3)-work out for yourself----------------|
|-(5)-x16--(8)-x16--(1)-x16--(1)--------------------------------------|
|-(5)------(8)------(1)-----------------------------------------------|
      
 "Somewhere weekness is our Strength..."

|-------------------------------------------------------------------|
|-------------------------------------------------------------------|
|----0---0---0---0---0--0--0--0----0---0---0---0---0---0---0---0----|<-Clean
|-12--12--12--12---8--8--8--8---10--10--10--10--10--10--10--10------|
|-------------------------------------------------------------------|
|-------------------------------------------------------------------|x4

 "Buried beneath it all and..."       

|-----------------------------------------------------------------|
|-----------------------------------------------------------------|
|-10-10-10-8-8-8-7-7-7-5-5-5-5-5-5-7-7-7-5-5-5-2-2-2-3-3-3-3-3-3--|<-Clean
|-----------------------------------------------------------------|
|-----------------------------------------------------------------|
|-----------------------------------------------------------------|x2

 "This is how we'll dance when..."

|---------------------------------------------------------------------|
|---------------------------------------------------------------------|
|----------------------------(3)-The rhythm is changed on this Chord--|
|-(5)------(8)------(1)------(3)-work out for yourself----------------|
|-(5)-x16--(8)-x16--(1)-x16--(1)--------------------------------------|
|-(5)------(8)------(1)-----------------------------------------------|x2

 "Reaching as i sink down into Light..."

|--------------------------------|
|--------------------------------|
|----------------------------3---|<-Leave each Chord ring 
|-5--------8--------1--------3---|  for 2 Bars, and use upstrokes :)
|-5--------8--------1--------1---|
|-5--------8--------1------------|x2

 "This is how we'll dance when..."

|---------------------------------------------------------------------|
|---------------------------------------------------------------------|
|----------------------------(3)-The rhythm is changed on this Chord--|
|-(5)------(8)------(1)------(3)-work out for yourself----------------|
|-(5)-x16--(8)-x16--(1)-x16--(1)--------------------------------------|
|-(5)------(8)------(1)-----------------------------------------------|x2


|-----|
|-----|
|-----|<-Finish on this Chord
|--5--|
|--5--|
|--5--|


Guitar 2

 Intro...

|----------------------------------------------|
|-------11---6-----------------11---6-------8--|
|-----------------7--5-------------------7-----|
|--8h12-------------------8h12-----------------|
|----------------------------------------------|
|----------------------------------------------|

 Play part below just after Haley sings "Just a Tiny Spark..."

|----------------------------------------------|
|-------11---6-----------------11---6-------8--|
|-----------------7--5-------------------7-----|
|--8h12-------------------8h12-----------------|
|----------------------------------------------|
|----------------------------------------------|

 "Ohh Glory..."

|--10-----8----|
|--11-----8----|<-play softly, let each chord ring
|--10-----10---|  For 2 bars each.
|--12-----10---|
|--10-----8----|
|--------------|

 "This is How we'll dance when..."

|--------------------------|
|----------------10----11--|
|----7^8^7p5<3---10-10-----|
|--------------------------|
|--------------------------|
|--------------------------|x2


 "Try to take us Down..."

|--------------------------------|
|----------------10-x-10^11^10---|
|----7^8^7p5<3---10-x------------|
|--------------------------------|
|--------------------------------|
|--------------------------------|

 "My pain and all the trouble caused..."

|----------------------------------------------|
|-------11---6-----------------11---6-------8--|
|-----------------7--5-------------------7-----|
|--8h12-------------------8h12-----------------|
|----------------------------------------------|
|----------------------------------------------|

 "Buried beneath it all and..."

|--10-----8----|
|--11-----8----|<-play softly, let each chord ring
|--10-----10---|  For 2 bars each.
|--12-----10---|
|--10-----8----|
|--------------|x2

"This is How we'll dance when..."

|--------------------------|
|----------------10----11--|
|----7^8^7p5<3---10-10-----|
|--------------------------|
|--------------------------|
|--------------------------|x2

"Try to take us Down..."

|--------------------------------|
|----------------10-x-10^11^10---|
|----7^8^7p5<3---10-x------------|
|--------------------------------|
|--------------------------------|
|--------------------------------|

"This is How we'll stand when..."

|--------------------------|
|----------------10----11--|
|----7^8^7p5<3---10-10-----|
|--------------------------|
|--------------------------|
|--------------------------|x2

"they burn our houses down..."

|--------------------------------|
|----------------10-x-10^11^10---|
|----7^8^7p5<3---10-x------------|
|--------------------------------|
|--------------------------------|
|--------------------------------|

 "reaching as i sink down into light..."

|----------------------------------|
|--15------------------------------|
|-----12--10---10-----10-----------|
|-----------------8------7h8--5--5-|
|----------------------------------|
|----------------------------------|x2

|---------------------------------------------|
|--15-----------------------------------------|
|-----12--10---10-----10----------------------|
|-----------------8------7h8--5--5----7-8-10--|
|---------------------------------------------|
|---------------------------------------------|

"reaching as i sink down into light..."

|----------------------------------|
|--15------------------------------|
|-----12--10---10-----10-----------|
|-----------------8------7h8--5--5-|
|----------------------------------|
|----------------------------------|x2

|---------------------------------------------|
|--15-----------------------------------------|
|-----12--10---10-----10----------------------|
|-----------------8------7h8--5--5----7-8-10--|
|---------------------------------------------|
|---------------------------------------------|


"This is How we'll dance when..."

|--------------------------|
|----------------10----11--|
|----7^8^7p5<3---10-10-----|
|--------------------------|
|--------------------------|
|--------------------------|x2

"Try to take us Down..."

|--------------------------------|
|----------------10-x-10^11^10---|
|----7^8^7p5<3---10-x------------|
|--------------------------------|
|--------------------------------|
|--------------------------------|

"This is How we'll stand when..."

|--------------------------|
|----------------10----11--|
|----7^8^7p5<3---10-10-----|
|--------------------------|
|--------------------------|
|--------------------------|x2

"they burn our houses down..."

|--------------------------------|
|----------------10-x-10^11^10---|
|----7^8^7p5<3---10-x------------|
|--------------------------------|
|--------------------------------|
|--------------------------------|

 "ohh glory..."

|----------------------------------|
|--15------------------------------|
|-----12--10---10-----10-----------|
|-----------------8------7h8--5--5-|
|----------------------------------|
|----------------------------------|x2

|---------------------------------------------|
|--15-----------------------------------------|
|-----12--10---10-----10----------------------|
|-----------------8------7h8--5--5----7-8-10--|
|---------------------------------------------|
|---------------------------------------------|

|----------------------------------|
|--15------------------------------|
|-----12--10---10-----10-----------|
|-----------------8------7h8--5--5-|
|----------------------------------|
|----------------------------------|x2

|---------------------------------------------|
|--15-----------------------------------------|
|-----12--10---10-----10----------------------|
|-----------------8------7h8--5--5----7-8-10--|
|---------------------------------------------|
|---------------------------------------------|
comments
print report bad tab
2 comments total.
0 reply
elleild 420 wrote on May 14 2010, 07:52 pm

|---------------------------------------------|
|--15-----------------------------------------|
|-----12--10---10-----10----------------------|
|-----------------8------7h8--5--5----7-8-10--|
|---------------------------------------------|
|---------------------------------------------|

Should be with a slight delay effect
Ending
D#|---10------------------------------|------------|
A#|------8----------------------------|------------|
F#|---------10---10-------------------|------------|
C#|-----------------8---8---7s8-------|-7-8-10-----|
G#|-----------------------------10-10-|------------|
C#|-----------------------------------|------------|

0 reply
N04Hz_Ark 508 wrote on December 28 2015, 10:48 pm

The last chord here is incorrect, it should be two frets up, as shown below...


"This is how we'll dance when..."

|--------------------------------|
|--------------------------------|
|-----------------------5--------|
|--5------8------1------5--------|
|--5------8------1------3--------|
|--5------8------1---------------|

I want to post or [tab]
guest
You may want to rate the tab now too:
select rating
Please do not post tabs as comments. Select "correction" instead!