Oops, an error
Loading. Please wait.

Let The Flames Begin Tab

version 5
version 5

Whole song

Interactive

2,063 views 3 this week
no commentswrite comment
1 2 3 4 5
please rate
add to favorites
launch autoscroll
font size
0
reset
how to read this tab
guitar tuner
Autoscroll
slow
fast
+/-
esc
set tempo
stop
Help us to improve Ultimate-Guitar.com Take our survey!
×
Author
Difficulty
Tuning
novice
D A D G B E
Paramore - Let the Flames Begin

Album: Riot
Instrument: Guitar
Tuning: eBGDAD

Should be mostly accurate. If there's anything wrong please comment and tell me. 
Please rate as well.

Intro

Rythm Guitar (Zac) w/octaver. Play x9
e||----14----14----14----14-|---14----14----14----14-|---14----14----14----14-|
B||-14----14----14----14----|------------------------|------------------------|
G||-------------------------|14----14----14----14----|16----16----16----16----|
D||-------------------------|------------------------|------------------------|
A||-------------------------|------------------------|------------------------|
D||-------------------------|------------------------|------------------------|

e||----14----14----14----14-|
B||-------------------------|
G||-16----16----16----16----|
D||-------------------------|
A||-------------------------|
D||-------------------------|


Lead Guitar (Josh)
e||-----|--5-----|---------|---|-------|--5-----|----------|2---|
B||-----|5-------|-5-----2-|0--|-------|5-------|-5------2-|----|
G||---4-|--------|---------|---|-----4-|--------|----------|----|
D||-----|--------|---------|---|-------|--------|----------|----|
A||-----|--------|---------|---|-------|--------|----------|----|
D||-----|--------|---------|---|-------|--------|----------|----|


Bridge
   Lead Guitar Play x2
e||-----------------|-----------------|
B||-9-9-9-7-7-7-4-4-|-2-2-2-2-2-2-2-2-|
G||-----------------|-----------------|
D||-----------------|-----------------|
A||-----------------|-----------------|
D||-----------------|-----------------|

Chorus

Lead Guitar Play x3                     I'm not so sure about this bit
e||-----------------|-------------|     |--------|
B||-----------------|-------------|     |--------|
G||-6-7-6-------9---|----13b14r13-|     |11-5-9-4|
D||-------9-7-9---9-|11-----------|     |--------|
A||-----------------|-------------|     |--------|
D||-----------------|-------------|     |--------|

Rythm Guitar
e||---------------------------------|--------------------------------|
B||---------------------------------|--------------------------------|
G||---------------------------------|--------------------------------|
D||-4-4-4-4-4-4-4-4-4-4-4-4-4-4-4-4-|7-7-7-7-7-7-7-7-7-7-7-7-7-7-7-7-|
A||-4-4-4-4-4-4-4-4-4-4-4-4-4-4-4-4-|7-7-7-7-7-7-7-7-7-7-7-7-7-7-7-7-|
D||-4-4-4-4-4-4-4-4-4-4-4-4-4-4-4-4-|7-7-7-7-7-7-7-7-7-7-7-7-7-7-7-7-|

e||---------------------------------|--------------------------------|
B||---------------------------------|--------------------------------|
G||---------------------------------|--------------------------------|
D||-0-0-0-0-0-0-0-0-0-0-0-0-0-0-0-0-|9-9-9-9-9-9-9-9-9-9-9-9-9-9-9-9-|
A||-0-0-0-0-0-0-0-0-0-0-0-0-0-0-0-0-|9-9-9-9-9-9-9-9-9-9-9-9-9-9-9-9-|
D||-0-0-0-0-0-0-0-0-0-0-0-0-0-0-0-0-|9-9-9-9-9-9-9-9-9-9-9-9-9-9-9-9-|

After 2nd chorus lead guitar does
   [---------Play x3--------]
e||-9---------------|--------|--------|
B||---7---7---------|--------|--------|
G||-----9---9-------|--------|--------|
D||-----------7-6-7-|6-6-4-4-|6--7--9-|
A||-----------------|--------|--------|
D||-----------------|--------|--------|
Suggest correction new What's this?
You can suggest a correction to this tab. Community and Mods will review your correction and vote to approve or reject it.
comments
We did not receive enough feedback on this tab! Please rate:
print report bad tab
1 2 3 4 5
guest
You may want to rate the tab now too:
select rating
Please do not post tabs as comments. Select "correction" instead!