Oops, an error
Loading. Please wait.

Let This Go Tab

version 3
version 3

Whole song

Interactive

7,191 views 1 this week
2 commentsread comments
1 2 3 4 5
x 4
add to favorites
launch autoscroll
font size
0
reset
how to read this tab
guitar tuner
Autoscroll
slow
fast
+/-
esc
set tempo
stop
Help us to improve Ultimate-Guitar.com Take our survey!
×
Author
Capo
Paramore
Let This Go
All We Know
tabbed by: paramore_fans@yahoo.com

This version is 98% correct!!! I saw them on Warped tour, Josh has a capo on 6th fret if 
watched their vid on www.youtube.com

Tuning:

Guitar 1: Drop D
Guitar 2: Drop D + Capo on 6th fret to make the C chord sound as high F#


Intro:

Part 1:

Guitar 1:
e|-------------------|--------------------|
B|-------------------|--------------------|
G|-------------------|--------------------|
D|-1-----4-----9-----|-1-----4-----9------|
A|-1(x6)-4(x6)-9(x6)-|-1(x8)-4(x8)-9(x16)-|
D|-1-----4-----9-----|-1-----4-----9------|
      Palm muted            Distorted

Guitar 2:
e|-----8-|-----10-|-----8-|--------------------|
B|-5h6---|-5h6----|-5h6---|--------------------|
G|-------|--------|-------|-2-----5------------|
D|-------|--------|-------|-2(x8)-5(x8)-3------|
A|-------|--------|-------|-0-----3-----3(x16)-|
D|-------|--------|-------|-------------3------|
    x2       x2      x2


Part 2:

Guitar 1: Idle

Guitar 2:
e|-----3-1-----0h1----0h1----0h1-|
B|---1-------1------1------1-----|
G|-------------------------------|
D|-------------------------------| (x2)
A|-------------------------------|
D|-3-------0---------------------|


Verses:

Guitar 1:
e|--------------|--------|
B|--------------|--------|
G|--------------|--------|
D|-9-----6------|-1------| (x3) but on 3rd time, don't do the 2nd bar
A|-9(x4)-6(x12)-|-1(x16)-| as well as the 2nd guitar
D|-9-----6------|-1------|
       x2

Guitar 2:
e|-----3-1-----0h1----0h1----0h1-|------------------|
B|---1-------1------1------1-----|------------------|
G|-------------------------------|-5--4-------------|
D|-------------------------------|-------5--5--2--2-|
A|-------------------------------|------------------|
D|-3-------0---------------------|------------------|
               x2


Chorus:

Guitar 1:
e|----------------------------------|
B|----------------------------------|
G|--------4-------------------------|
D|-4------4(x16)-6-----8-----9------| (x2)
A|-4(x16)-2------6(x8)-9(x8)-9(x16)-|
D|-4-------------6-----8-----9------|

Guitar 2:
e|----------------------------------|
B|----------------------------------|
G|-5------5------5-----5-----5------|
D|-5(x16)-5------5-----5-----5------| (x2)
A|-3------3(x16)-0(x8)-3(x8)-3(x16)-|
D|--------3------0-----2-----3------|


Bridge:

Guitar 1:
e|--------------------|
B|--------------------|
G|--------------------|
D|-1-----8-----9------| (x2)
A|-1(x8)-9(x8)-9(x16)-|
D|-1-----8-----9------|
      Palm muted

Guitar 2:
e|-3------|-----8-|-----10-|-----8-|
B|-1(x32)-|-5h6---|-5h6----|-5h6---|
G|-0------|-------|--------|-------|
D|--------|-------|--------|-------|
A|--------|-------|--------|-------|
D|--------|-------|--------|-------|
             x2       x2       x2

Guitar 1:
e|--------------------|-------------------|
B|--------------------|-------------------|
G|--------------------|-------------4-----|
D|-1-----8-----9------|-1-----4-----4(x8)-| (x2)
A|-1(x8)-9(x8)-9(x16)-|-1(x8)-4(x8)-2-----|
D|-1-----8-----9------|-1-----4-----------|

Guitar 2:
e|---------------------------------------------------------------------|
B|-------------------------------------------------3-3-3-3-------------|
G|---------5-5-5-5-------------------------5-5-5-5---------5-5-5-5-----|
D|-2-2-3-3---------2-2-3-3-0-0-0-0-2-2-3-3-----------------------------|
A|---------------------------------------------------------------------|
D|---------------------------------------------------------------------|
then                                                                 |-(x2)
e|---------------------------------------------------------------------|
B|---------------------------------------------------------------------|
G|---------5-5-5-5-----------------------------------------------------|
D|-2-2-3-3---------2-2-3-3-0-0-0-0---------0-0-0-0-2-2-2-2-2-2-2-2-----|
A|---------------------------------3-3-3-3-----------------------------|
D|---------------------------------------------------------------------|


Chorus 2:

Guitar 1:
e|---------|--------------------|
B|---------|--------------------|
G|---------|--------------------|
D|-4~---9~-|-6-----8-----9------|
A|-4~---9~-|-6(x8)-9(x8)-9(x16)-|
D|-4~---9~-|-6-----8-----9------|
then
e|----------------------------------|
B|----------------------------------|
G|--------4-------------------------|
D|-4------4(x16)-6-----8-----9------|
A|-4(x16)-2------6(x8)-9(x8)-9(x16)-|
D|-4-------------6-----8-----9------|

Guitar 2:
e|-3~-|--------------------|
B|-1~-|--------------------|
G|-0~-|-5-----5-----5------|
D|----|-5-----5-----5------|
A|----|-0(x8)-3(x8)-3(x16)-|
D|----|-0-----2-----3------|
then
e|----------------------------------|
B|----------------------------------|
G|-5------5------5-----5-----5------|
D|-5(x16)-5------5-----5-----5------| (x2)
A|-3------3(x16)-0(x8)-3(x8)-3(x16)-|
D|--------3------0-----2-----3------|


Outro:

Guitar 1:
e|---------------|----------------|
B|---------------|----------------|
G|--------4------|----------------|
D|-4------4(x16)-|-6-----8-----9~-|
A|-4(x16)-2------|-6(x8)-9(x6)-9~-|
D|-4-------------|-6-----8-----9~-|
                           x2

Guitar 2:
e|---------------|----------------|
B|---------------|----------------|
G|-5------5------|-5-----5-----5~-|
D|-5(x16)-5------|-5-----5-----5~-|
A|-3------3(x16)-|-0(x8)-3(x6)-3~-|
D|--------3------|-0-----2-----3~-|
Suggest correction
comments
print report bad tab
2 comments total.
0 reply
lchunky91 31 Mar 28, 2007 03:07 PM

GOSH a little bit of humility.. you kindin who with your 98% accurate ? you mixed up Jeremy's (bass) and Hunter's (rythm guitar) tabs for the entire song, what you tabbed out is what we hear for the bass in general. Things to fix : For Hunter : during the verse he doesn't do that AT ALL lol, he does single-notes, the chorus too and the bridge is way more complicated, For Josh : the verse isn't that simple and the single notes you hear during the intro isn't his part, it's Hunter's, he does some wicked chords.. that are similar to the ones in Pressure's Rythm guitar Tabs..

I was just suprised that you thought you were so right lol, just pay more attention to the vidz on youtube and..you could figure it out "easily".. it ain't that hard ;)

+2 reply
Supadude 10 Jul 05, 2007 07:33 AM

Comment to last comment...lol...and dude who cares if the tabber wrote that hunter plays chords instead of singles..
this tab is greaaaat! just like kelloggs frosties!!!

guest
You may want to rate the tab now too:
select rating
Wanna post a correction for this tab? Suggest correction