Oops, an error
Loading. Please wait.

Looking Up bass

version 1
version 1

Whole song

Interactive

13,438 views 9 this week
5 commentsread comments
1 2 3 4 5
x 12
add to favorites
×
Save as Personal and add changes to this tab that will be seen only by you. Learn more ›
×
You can save this tab as Personal to edit and correct it or add notes. All changes will be seen only by you. Learn more »
launch autoscroll
font size
0
reset
guitar tuner
edit
Autoscroll
slow
fast
+/-
esc
set tempo
stop
-------------------------------------------------------------------------------
			     Looking Up - Paramore
-------------------------------------------------------------------------------

Tabbed By: Valerie L
e-mail: queefist@yahoo.com
Tuning: standard
 
Intro
G|---------------|   |-------------|
D|---------------|   |-------------|
A|---------------|   |------66-666-|
E|005/12-9-99-999|x3 |5-7-9--------|

verse "Things are looking up"
G|---------------------------|
D|---------------------------|
A|---------------------------|
E|0000-0-0000-0-9999-9-7777-7|

G|-------------------------------------------------------|
D|-------------------------------------------------------|
A|----------------------------7777-7\--------------------|
E|0000-0-0000-0-9999-9-7777-7--------0000-0-9999-9-7777-7|

pre-chorus "i'm always wrong but you're never right"
G|--------------------------------------|
D|--------------------------------------|
A|-------------------------------7777---|
E|0000-0-0000-0-9999-9-7777-7-0-0----0-0|

chorus "honestly can you believe..."
G|-------------------------------------------------------------------------|
D|-------------------------------------------------------------------------|
A|-------------------------------------------------------------------------|
E|55555555-00000000-99999999-77777h9p7-55555555-000000000-7777777777777h9p7|

"it's not a dream anymore.."
G|-------------------------------|--------------------------|
D|-------------------------------|--------------------------|
A|-------------------------------|--------------------------|
E|5555-55-5555-55-9999-99-7777-77|5555-55-5555-55-9999-99-7-|

intro
G|---------------|   |--------|
D|---------------|   |--------|
A|---------------|   |------6~|
E|005/12-9-99-999|x3 |5-7-9---|

verse "Could've given up easily"
G|--------------------------|
D|--------------------------|
A|777---7\------------------|
E|--------0000-9999-9-7777-7|

"i was a few cheap shots away"
G|-------------------------------------------------------|
D|-------------------------------------------------------|
A|----------------------------7777-7\--------------------|
E|0000-0-0000-0-9999-9-7777-7--------0000-0-9999-9-7777-7|

pre-chorus "that i would've died for yesterday"
G|----------------------------------|
D|----------------------------------|
A|----------------------------------|
E|0000-0-0000-0-9999-9-7777-7-0-0-0-|

chorus "honestly can you believe..."
G|-------------------------------------------------------------------------|
D|-------------------------------------------------------------------------|
A|-------------------------------------------------------------------------|
E|55555555-00000000-99999999-77777h9p7-55555555-000000000-7777777777777h9p7|

"it's not a dream anymore.."
G|-------------------------------|-------------------------------------|
D|-------------------------------|-------------------------------------|
A|-------------------------------|-------------------------------------|
E|5555-55-5555-55-9999-99-7777-77|5555-55-5555-55-9999-99-77h9p7-7-7777|

bridge "I can't believe we almost..."
G|-------------------------------------------|
D|-------------------------------------------|
A|-----------------------------------22222222|
E|00---00---44---55---222222222222222--------|

chorus "honestly can you believe?"
G|------------------------------------------------------------------------|
D|------------------------------------------------------------------------|
A|----------------------------------------------777777777-----------------|
E|55555555-00000000-99999999-77777h9p7-55555555----------7777777777777h9p7|

"it's not a dream anymore.."
G|-------------------------------|    |-----|
D|-------------------------------|    |-----|
A|-------------------------------|    |-----|
E|5555-55-5555-55-9999-99-7777-77|x3  |0~---|

outro "i can't believe we almost"
G|-------------------|
D|-------------------|
A|-------------------|
E|00---00---44---55--| x3

G|---------------------------|
D|---------------------------|
A|---------------------------|
E|00---00---44--55-5h7p5--0~-|

            
            
Suggest correction
Creating personal tab
Creating personal tab
You can edit any tab online and save it as your Personal.

You can edit, replace or remove any tab part or add personal notes – all changes will be seen only by you.

Personal tabs can be accessed anytime from any device, even offline.
Learn more »
comments
print report bad tab
5 comments total. Showing first comments.
0 reply
AlexD97 579 Mar 30, 2010 09:17 AM

Really good. You've done a tab on every Paramore song I've played.

+2 reply
shae687 71 Apr 14, 2010 11:54 AM

Agreed, I love her tabs for Paramore and Fall Out Boy!

0 reply
nacho.rock.cabj 454 Oct 13, 2014 10:16 AM

This is amazing!

guest
You may want to rate the tab now too:
select rating
Wanna post a correction for this tab? Suggest correction