Oops, an error
Loading. Please wait.

Looking Up Tab

version 2
version 2

Whole song

Interactive

37,195 views 12 this week
4 commentsread comments
1 2 3 4 5
accurate
x 11
add to favorites
launch autoscroll
font size
0
reset
how to read this tab
guitar tuner
Autoscroll
slow
fast
+/-
esc
set tempo
stop
Help us to improve Ultimate-Guitar.com Take our survey!
×
Author
Tabbers playing skills
advanced +
PLS LIKE OUR BAND FAN PAGE @ FACEBOOK - https://www.facebook.com/SinceAstrid

Tabbed By Francis Twister
From Paramore Philippines(PARAWHORE)

Tuning- Drop D

Intro-
1.
GtrI
(--------------3x----------------------------------------------------|
|------------------------------|-------------------------------------|
|--5h7--7-7--7---5-5--5-5--5-5-|-2---4---5----77--7-7-7-7-7----------|
|--4-4--4-4--4---4-4--4-4--4-4-|-2-x-4-x-6--x-44--4-4-4-4-4----------|
|--4h6--6-6--6---x-x--x-x--x-x-|-2-x-4-x-6--x-44--4-4-4-4-4----------|
|----------------4-4--4-4--4-4-|-0-x-2-x-4--x-66--6-6-6-6-6----------|
|------------------------------|-------------------------------------|


2.

GtrI
(--------------3x----------------------------------------------------|
|------------------------------|-------------------------------------|
|--5h7--7-7--7---5-5--5-5--5-5-|-2---4---5----77--7-7-7-7-7----------|
|--4-4--4-4--4---4-4--4-4--4-4-|-2-x-4-x-6--x-44--4-4-4-4-4----------|
|--4h6--6-6--6---x-x--x-x--x-x-|-2-x-4-x-6--x-44--4-4-4-4-4----------|
|----------------4-4--4-4--4-4-|-0-x-2-x-4--x-66--6-6-6-6-6----------|
|------------------------------|-------------------------------------|
OR
 (2x)
|---------------|---------------
|---------------|---------------
|---09h11-11-09-|---6-8-09-1111-
|---09h09-09-09-|---7-9-09-0909-
|---09h11-11-xx-|---7-9-xx-0909-
|------------11-|---7-9-11-1313-

GtrII
|-------------------------------|-------------------------------|------------------------------|
|-------------------------------|-------------------------------|------------------------------|
|-13/12-1212-12-1313-1313-1313--|-13/20-2020-20--1313-1313-1313-|-9-x-11-x13-x-1616-1616161616-|
|-------------------------------|-------------------------------|------------------------------|
|-11/14-1414-14-1111-1111-1111--|-11/18-1818-18--1111-1111-1111-|-7-x-9--x11-x-1414-1414141414-|
|-------------------------------|-------------------------------|------------------------------|

Verse-
GtrI(palm mute)
|-------------------------------------------------------------|
|-------------------------------------------------------------|
|-------------------------------------------------------------|
|---------------6666-6-4444-4----------------6666-6-4444-4----|2x
|-2222-2-2222-2-4444-4-2222-2--2222-2-2222-2-4444-4-2222-2----|
|-2222-2-2222-2----------------2222-2-2222-2------------------|

GtrII(palm mute)
|-------------------------------------------------------------|
|-------------------------------------------------------------|
|-------------------------------------------------------------|
|---------------6666-6-4444-4----------------6666-6-4444-4----|
|-2222-2-2222-2-4444-4-2222-2--2222-2-2222-2-4444-4-2222-2----|
|-2222-2-2222-2----------------2222-2-2222-2------------------|

|-12----14----12----14----12----12----11----11---------------|
|----12----12----12----12----12----12----12----12------------|
|------------------------------------------------------------|2x
|------------------------------------------------------------|
|------------------------------------------------------------|
|------------------------------------------------------------|



Refrain
GtrI
|------------------------------|
|------------------------------|
|-----444----------------------|
|-22--444--22------------------|
|-22--222--22------------------|
|-22-------22------------------|

GtrII
|------------------------------|
|-----555----------------------|
|-----444----------------------|
|-22-------22------------------|
|-22-------22------------------|
|-22-------22------------------|


Chorus-
GtrI
|--------------------------------------------------------------------------|
|--------------------------------------------------------------------------|
|-------------------66666666-44444444--------------------44444444-44444444-|
|-77777777-22222222-66666666-44444444--77777777-22222222-44444444-44444444-|
|-77777777-22222222-44444444-22222222--77777777-22222222-22222222-22222222-|
|-77777777-22222222--------------------77777777-22222222-------------------|
GtrII
|---------------------------------------------------------------------|
|---------------------------------------------------------------------|
|--9-9-9-9-9-9-9-9-1313131313131313-9-9-9-9-9-9-9-9-8-8-8-8-8-8-8-8---|
|---------------------------------------------------------------------|
|--7-7-7-7-7-7-7-7-1111111111111111-7-7-7-7-7-7-7-7-6-6-6-6-6-6-6-6---|
|---------------------------------------------------------------------|

|---------------------------------------------------------------------|
|---------------------------------------------------------------------|
|--9-9-9-9-9-9-9-9-1313131313131313-1111111111111111-1111111111111111-|
|---------------------------------------------------------------------|
|--7-7-7-7-7-7-7-7-1111111111111111-9-9-9-9-9-9-9-9--9-9-9-9-9-9-9-9--|
|---------------------------------------------------------------------|

GtrI
|------------------------------------------------------------------------------|
|------------------------------------------------------------------------------|
|---------------------6666-666-4444-444----------------------6666-666-4444-444-|
|-7777-77-77-777--777-6666-666-4444-444--7777-77-77-777--777-6666-666-4444-444-|
|-7777-77-77-777--777-4444-444-2222-222--7777-77-77-777--777-4444-444-2222-222-|
|-7777-77-77-777--777--------------------7777-77-77-777--777-------------------|
GtrII

|-----------------------------------------------|
|-----------------------------------------------|
|-9999-99-99-999-999-11111111-111111--8888-888--|
|-----------------------------------------------|2x
|-7777-77-77-777-777-9-9-9-9--9-9-9---6666-666--|
|-----------------------------------------------|

then-

GtrI
(--------------3x----------------------------------------------------|
|------------------------------|-------------------------------------|
|--5h7--7-7--7---5-5--5-5--5-5-|-2---4---5----77--7-7-7-7-7----------|
|--4-4--4-4--4---4-4--4-4--4-4-|-2-x-4-x-6--x-44--4-4-4-4-4----------|
|--4h6--6-6--6---x-x--x-x--x-x-|-2-x-4-x-6--x-44--4-4-4-4-4----------|
|----------------4-4--4-4--4-4-|-0-x-2-x-4--x-66--6-6-6-6-6----------|
|------------------------------|-------------------------------------|


GtrII
|-------------------------------|-------------------------------|------------------------------|
|-------------------------------|-------------------------------|------------------------------|
|-13/12-1212-12-1313-1313-1313--|-13/20-2020-20--1313-1313-1313-|-9-x-11-x13-x-1616-1616161616-|
|-------------------------------|-------------------------------|------------------------------|
|-11/14-1414-14-1111-1111-1111--|-11/18-1818-18--1111-1111-1111-|-7-x-9--x11-x-1414-1414141414-|
|-------------------------------|-------------------------------|------------------------------|

Do Verse-

GtrII do @ verse part.2
|-12----14----12----14----12----12----11----11---------------|
|----12----12----12----12----12----12----12----12------------|
|------------------------------------------------------------|
|------------------------------------------------------------|
|------------------------------------------------------------|
|------------------------------------------------------------|

|-12----14----12----14----16----16----14----14---------------|
|----12----12----12----12----12----12----12----12------------|
|------------------------------------------------------------|
|------------------------------------------------------------|
|------------------------------------------------------------|
|------------------------------------------------------------|

then
|------------------------------|
|------------------------------|
|-----88888888-----------------|
|-22---------------------------|
|-22--66666666-----------------|
|-22---------------------------|

Do Chorus-

GtrI
|------------------------------|
|------------------------------|
|-6-66-66-6-6-6-6--------------|
|-7-77-77-7-7-7-7--------------|
|-7-77-77-7-7-7-7--------------|
|-7-77-77-7-7-7-7--------------|

GtrII
|------------------------------|
|------------------------------|
|-9-99-99-9-9-9-9--------------|
|------------------------------|
|-7-77-77-7-7-7-7--------------|
|------------------------------|

Bridge-Best part!!!
GtrI
|-------------------------------------------------------------------------|
|-------------------------------------------------------------------------|
|-------------------------------------------------------------------------|
|-------------------------------------------------------------------------|
|-------------------------------------------------------------------------|
|-2222222222222222-66666666-77777777--2222222222222222-66666666-77777777--|
GtrII
|-------------------------------------------------------------------------|
|--------------------------------------------2x---------------------------|
|-------------------------------------1313131313131313-88888888-99999999--|
|-------------------------------------------------------------------------|
|-------------------------------------1111111111111111-66666666-77777777--|
|-------------------------------------------------------------------------|

GtrI
|-------------------------------------------------------------------------|
|-------------------------------------------------------------------------|
|-------------------------------------------------------------------------|
|-2-2-xx-x-2-2-xx-x-6-6-xx-x-7-7-xx-x-2-2-xx-x-2-2-xx-x-6-6-xx-x-7-7-xx-x-|
|-2-2-xx-x-2-2-xx-x-6-6-xx-x-7-7-xx-x-2-2-xx-x-2-2-xx-x-6-6-xx-x-7-7-xx-x-|
|-2-2-xx-x-2-2-xx-x-6-6-xx-x-7-7-xx-x-2-2-xx-x-2-2-xx-x-6-6-xx-x-7-7-xx-x-|

GtrII
|----------------------------------------------|
|----------------------------------------------|
|-1313-xx-x-1313-xx-x-1616-xx-x-1818-xx-x------|
|------xx-x------xx-x------xx-x------xx-x------|2x
|-1111-xx-x-1111-xx-x-1414-xx-x-1616-xx-x------|
|----------------------------------------------|

then-
GtrI
|------------------------------|
|------------------------------|
|------------------------------|
|-44-4-444-4-44-44-9999-99-----|
|-44-4-444-4-44-44-9999-99-----|
|-44-4-444-4-44-44-9999-99-----|

GtrI
|-----------------------------------|
|-----------------------------------|
|-99-9-999-9-99-99-16161616-1616----|
|-----------------------------------|
|-77-7-777-7-77-77-14141414-1414----|
|-----------------------------------|

Do Chorus
then-

GtrI
|------------------------------------------------------------------------------|
|------------------------------------------------------------------------------|
|---------------------6666-666-4444-444----------------------6666-666-4444-444-|
|-7777-77-77-777--777-6666-666-4444-444--7777-77-77-777--777-6666-666-4444-444-|
|-7777-77-77-777--777-4444-444-2222-222--7777-77-77-777--777-4444-444-2222-222-|
|-7777-77-77-777--777--------------------7777-77-77-777--777-------------------|

GtrII


|-------------------------------------------------------------------------|
|-------------------------------------------------------------------------|
|-13131313/161616--13131313/161616--13131313-131313-11111111-111111-------|
|-------------------------------------------------------------------------|
|-11111111/141414--11111111/141414--11111111-111111-9-9-9-9--9-9-9--------|
|-------------------------------------------------------------------------|


GtrI
|-------------------------------------------------------------------------|
|-------------------------------------------------------------------------|
|-------------------------------------------------------------------------|
|-2~----------------------------------------------------------------------|
|-2~----------------------------------------------------------------------|
|-2~----------------------------------------------------------------------|

GtrII
|-------------------------------------------------------------------------|
|-------------------------------------------------------------------------|
|-9~----------------------------------------------------------------------|
|-------------------------------------------------------------------------|
|-7~----------------------------------------------------------------------|
|-------------------------------------------------------------------------|

I can't believe we ...
GtrI
|-------------------------------------------------------------------------|
|-------------------------------------------------------------------------|
|-------------------------------------------------------------------------|
|-------------------6-6-xx-x-7-7-xx-x-2-2-xx-x-2-2-xx-x-6-6-xx-x-7-7-xx-x-|
|-------------------6-6-xx-x-7-7-xx-x-2-2-xx-x-2-2-xx-x-6-6-xx-x-7-7-xx-x-|
|-------------------6-6-xx-x-7-7-xx-x-2-2-xx-x-2-2-xx-x-6-6-xx-x-7-7-xx-x-|

GtrII
|---------------------------------------------------------------------------------------|
|---------------------------------------------------------------------------------------|
|--------------------1616-xx-x-1818-xx-x-1313-xx-x-1313-xx-x-1616-xx-x-1818-xx-x--------|
|--------------------------------------------xx-x------xx-x------xx-x------xx-x---------|
|--------------------1414-xx-x-1616-xx-x-1111-xx-x-1111-xx-x-1414-xx-x-1616-xx-x--------|
|---------------------------------------------------------------------------------------|

GtrI
|-------------------------------------------------------------------------|
|-------------------------------------------------------------------------|
|-------------------------------------------------------------------------|
|-2-2-xx-x-2-2-xx-x-6-6-xx-x-7-7-xx-x-2-2-xx-x-2-2-xx-x-6-6-xx-x-77~-7777-|
|-2-2-xx-x-2-2-xx-x-6-6-xx-x-7-7-xx-x-2-2-xx-x-2-2-xx-x-6-6-xx-x-77~-7777-|
|-2-2-xx-x-2-2-xx-x-6-6-xx-x-7-7-xx-x-2-2-xx-x-2-2-xx-x-6-6-xx-x-77~-7777-|

GtrII
|----------------------------------------------|
|----------------------------------------------|
|-1313-xx-x-1313-xx-x-1616-xx-x-1818-xx-x------|
|------xx-x------xx-x------xx-x------xx-x------|2x
|-1111-xx-x-1111-xx-x-1414-xx-x-1616-xx-x------|
|----------------------------------------------|

END
GtrI
|-------------------------------------------------------------------------|
|-------------------------------------------------------------------------|
|-------------------------------------------------------------------------|
|-2~----------------------------------------------------------------------|
|-2~----------------------------------------------------------------------|
|-2~----------------------------------------------------------------------|

GtrII
|-------------------------------------------------------------------------|
|-------------------------------------------------------------------------|
|-9~----------------------------------------------------------------------|
|-------------------------------------------------------------------------|
|-7~----------------------------------------------------------------------|
|-------------------------------------------------------------------------|

Lyrics

Things are looking up, oh finally!
I thought I'd never see the day when you smile at me.
We always pull through
Oh when we try,
I'm always wrong but you're never right.
You're never right!

Honestly, can you believe we crossed the world while it's asleep?
I'd never trade it in,
coz I've always wanted this!
It's not a dream anymore!
No---o
It's not a dream anymore!
Its worth fighting for.

Could have given up so easily
I was a few cheap shots away from the end of me
Taken for granted,
almost everything that I would have died for
Just yesterday,
Just yesterday

Honestly, can you believe we crossed the world while it's asleep?
I'd never trade it in,
coz I've always wanted this!
It's not a dream anymore!
No---o
It's not a dream anymore!
Its worth fighting for.

God knows the world doesnt need another band,
(whoo-oa, whooo-oa!)
But what a waste it wouldve been!
(whoo-oa, whooo-oa!)
I can't believe we almost hung it up
(whoo-oa, whooo-oa!)
We're just getting started
(whoo-oa, whooo-oa!)

Honestly, can you believe we crossed the world while it's asleep?
I'd never trade it in,
coz I've always wanted this!
It's not a dream anymore!
No---o
It's not a dream anymore!
no---o
It's not a dream anymore!
No---o
It's not a dream anymore!
It's worth fighting for

I can't believe we almost hung it up
(whoo-oa, whooo-oa!)
We're just getting started
(whoo-oa, whooo-oa!)
I can't believe we almost hung it up
(whoo-oa, whooo-oa!)
We're just getting started

We're just getting started
Suggest correction
What's this?
You can suggest a correction to this tab. Community and Mods will review your correction and vote to approve or reject it.
comments
print report bad tab
4 comments total. Showing first comments.
0 reply
Virtudes 37 wrote on October 14 2009, 04:04 am

4/6

How the hell do you do that?
Im stumped :(

Other then that rhythm guitar sounds spot on

0 reply
ooominhooo 383 wrote on January 6 2010, 10:29 am

the intro can't be that complicated it has to be 2 guitars. the rest is good.

0 reply
mattplayscheap 1,926 wrote on July 30 2010, 01:27 am

hey i love the tab!
but i notice Josh playing it more along these lines:

it is in Drop D...

Intro
(2x)
e---------------|---------------
b---------------|---------------
g---09h11-11-09-|---6-8-09-1111-
d---09h09-09-09-|---7-9-09-0909-
a---09h11-11-xx-|---7-9-xx-0909-
d------------11-|---7-9-11-1313-

I play it in Standard so it look more like this
e--------------|---------------
b--------------|---------------
g---09h11-11-9-|---6-8-9-1111-
d---09h09-09-9-|---7-9-9-0909-
a---09h11-11-x-|---7-9-x-0909-
e------------9-|---5-7-9-1111-

Josh's Chorus is this (not to different from yours)
e--------------------------
b--------------------------
g--------------------------
d---7--2--11--9---7--2--9--
a---7--2--11--9---7--2--9--
d---7--2--11--9---7--2--9--

guest
You may want to rate the tab now too:
select rating
Please do not post tabs as comments. Select "correction" instead!