Oops, an error
Loading. Please wait.

Loves Not A Competition But Im Winning Tab

version 1
version 1

Intro

Whole song

2,606 views 1 this week
no commentswrite comment
1 2 3 4 5
excellent!
x 3
add to favorites
launch autoscroll
font size
0
reset
how to read this tab
guitar tuner
Tab Pro tools
  • play this tab
  • loop segment
  • change instrument
  • show fretboard
  • metronome
×
Best way to learn
"Loves Not A Competition But Im Winning"
Autoscroll
slow
fast
+/-
esc
set tempo
stop
Contributor
Difficulty
novice
i havent seen any tabs that show excatly what they play so i wacthed the video and 
worked it out :)



Tune Your Guitar Half a step down so you have: eb g# c# f# Bb eb

INTRO/VERSE:
--------------\4---4---4---4\8---8---8---8-\6---6---6-6-6------|
--------------\4---4---4---4\8---8---8---8-\6---6---6-6-6------|
--------------\5---5---5---5\9---9---9---9-\7---7---7-7-7------|
-3---3---3---3\6---6---6---6\10--10--10--10\8---8---8-8-8------|    X6
-3---3---3---3\6---6---6---6\10--10--10--10\8---8---8-8-8------|
-1---1---1---1\4---4---4---4\8---8---8---8-\6---6---6-6-6------|

CHORUS :THIS IS THE EXACT AMOUNT OF STRUMS LISTEN TO THE SONG TO SEE.

LOVES NOT A COMPETETION.....

4444444444444444333333333333333-----|
6666666666666666444444444444444-----|
6666666666666666555555555555555-----|         X1
6666666666666666555555555555555-----|
4444444444444444333333333333333-----|

VERSE 2:

--------------\4---4---4---4\8---8---8---8-\6---6---6-6-6------|
--------------\4---4---4---4\8---8---8---8-\6---6---6-6-6------|
--------------\5---5---5---5\9---9---9---9-\7---7---7-7-7------|    X2
-3---3---3---3\6---6---6---6\10--10--10--10\8---8---8-8-8------|
-3---3---3---3\6---6---6---6\10--10--10--10\8---8---8-8-8------|
-1---1---1---1\4---4---4---4\8---8---8---8-\6---6---6-6-6------|


CHORUS 2:

4444444444444444333333333333333-----|
6666666666666666444444444444444-----|
6666666666666666555555555555555-----|         X2
6666666666666666555555555555555-----|
4444444444444444333333333333333-----|

THEN....
IM NOT REALLY SURE ABOUT THIS BIT BUT IT SOUNDS RIGHT TO ME.


-----------33333333333333-----|
-----------44444444444444-----|
-----------55555555555555-----|    X2  CHECK SONG FOR STRUMMING
3333333333355555555555555-----|
3333333333333333333333333-----|
1111111111133333333333333-----|

THEN....
YOU KNOW WHATS LIKE WHEN YOUR NEW TO THE GAME...
4~---3~---6~---66666666-----|
5~---4~---6~---66666666-----|
6~---5~---7~---77777777-----|
6~---5~---8~---88888888-----|
4~---3~---8~---88888888-----|
4~---3~---6~---66666666-----|


--------------\4---4---4---4\8---8---8---8-\6---6---6-6-6------|
--------------\4---4---4---4\8---8---8---8-\6---6---6-6-6------|
--------------\5---5---5---5\9---9---9---9-\7---7---7-7-7------|
-3---3---3---3\6---6---6---6\10--10--10--10\8---8---8-8-8------|    X6
-3---3---3---3\6---6---6---6\10--10--10--10\8---8---8-8-8------|
-1---1---1---1\4---4---4---4\8---8---8---8-\6---6---6-6-6------|

OUTRO:
-----4~---8-~---6~--------------|
-----4~---8-~---6~--------------|
-----5~---9-~---7~--------------|
3~---6~---10~---8~-------3~-----|
3~---6~---10~---8~-------3~-----|
1~---4~---8-~---6~-------1~-----|

THIS IS THE BIT THAT COMES IN EVERY NOW AND THEN

9-9-------------------------------9-9------------------------------|
-------7-7---9-9-------------------------7-7---9-9---7-7--7-7-7----|
-------------------6-6--6-6-6--------------------------------------|
-------------------------------------------------------------------|
-------------------------------------------------------------------|
-------------------------------------------------------------------|


PLEASE LEAVE A COMMENT IF ANYTHING WAS WRONG :) XX
comments
We did not receive enough feedback on this tab! Please rate:
print report bad tab
1 2 3 4 5
I want to post or [tab]
guest
You may want to rate the tab now too:
select rating
Please do not post tabs as comments. Select "correction" instead!